  0
SECTION
  2
HEADER
  9
$ACADVER
  1
AC1027
  9
$ACADMAINTVER
 70
   105
  9
$DWGCODEPAGE
  3
ANSI_1252
  9
$LASTSAVEDBY
  1
zvevqx
  9
$REQUIREDVERSIONS
160
                 0
  9
$INSBASE
 10
0.0
 20
0.0
 30
0.0
  9
$EXTMIN
 10
-480.0
 20
-375.0
 30
0.0
  9
$EXTMAX
 10
596.0780570715021
 20
410.0
 30
0.0
  9
$LIMMIN
 10
0.0
 20
0.0
  9
$LIMMAX
 10
12.0
 20
9.0
  9
$ORTHOMODE
 70
     0
  9
$REGENMODE
 70
     1
  9
$FILLMODE
 70
     1
  9
$QTEXTMODE
 70
     0
  9
$MIRRTEXT
 70
     0
  9
$LTSCALE
 40
1.0
  9
$ATTMODE
 70
     1
  9
$TEXTSIZE
 40
0.2
  9
$TRACEWID
 40
0.05
  9
$TEXTSTYLE
  7
Standard
  9
$CLAYER
  8
Engrave
  9
$CELTYPE
  6
ByLayer
  9
$CECOLOR
 62
   256
  9
$CELTSCALE
 40
1.0
  9
$DISPSILH
 70
     0
  9
$DIMSCALE
 40
1.0
  9
$DIMASZ
 40
2.5
  9
$DIMEXO
 40
0.625
  9
$DIMDLI
 40
5.0
  9
$DIMRND
 40
0.0
  9
$DIMDLE
 40
0.0
  9
$DIMEXE
 40
1.25
  9
$DIMTP
 40
0.0
  9
$DIMTM
 40
0.0
  9
$DIMTXT
 40
2.5
  9
$DIMCEN
 40
0.09
  9
$DIMTSZ
 40
0.0
  9
$DIMTOL
 70
     0
  9
$DIMLIM
 70
     0
  9
$DIMTIH
 70
     0
  9
$DIMTOH
 70
     1
  9
$DIMSE1
 70
     0
  9
$DIMSE2
 70
     0
  9
$DIMTAD
 70
     1
  9
$DIMZIN
 70
     8
  9
$DIMBLK
  1

  9
$DIMASO
 70
     1
  9
$DIMSHO
 70
     1
  9
$DIMPOST
  1

  9
$DIMAPOST
  1

  9
$DIMALT
 70
     0
  9
$DIMALTD
 70
     2
  9
$DIMALTF
 40
25.4
  9
$DIMLFAC
 40
1.0
  9
$DIMTOFL
 70
     0
  9
$DIMTVP
 40
0.0
  9
$DIMTIX
 70
     0
  9
$DIMSOXD
 70
     0
  9
$DIMSAH
 70
     0
  9
$DIMBLK1
  1

  9
$DIMBLK2
  1

  9
$DIMSTYLE
  2
Standard
  9
$DIMCLRD
 70
     0
  9
$DIMCLRE
 70
     0
  9
$DIMCLRT
 70
     0
  9
$DIMTFAC
 40
1.0
  9
$DIMGAP
 40
0.625
  9
$DIMJUST
 70
     0
  9
$DIMSD1
 70
     0
  9
$DIMSD2
 70
     0
  9
$DIMTOLJ
 70
     1
  9
$DIMTZIN
 70
     0
  9
$DIMALTZ
 70
     0
  9
$DIMALTTZ
 70
     0
  9
$DIMUPT
 70
     0
  9
$DIMDEC
 70
     4
  9
$DIMTDEC
 70
     4
  9
$DIMALTU
 70
     2
  9
$DIMALTTD
 70
     2
  9
$DIMTXSTY
  7
Standard
  9
$DIMAUNIT
 70
     0
  9
$DIMADEC
 70
     0
  9
$DIMALTRND
 40
0.0
  9
$DIMAZIN
 70
     2
  9
$DIMDSEP
 70
    46
  9
$DIMATFIT
 70
     0
  9
$DIMFRAC
 70
     0
  9
$DIMLDRBLK
  1

  9
$DIMLUNIT
 70
     2
  9
$DIMLWD
 70
    -2
  9
$DIMLWE
 70
    -2
  9
$DIMTMOVE
 70
     0
  9
$DIMFXL
 40
1.0
  9
$DIMFXLON
 70
     0
  9
$DIMJOGANG
 40
0.7853981633974483
  9
$DIMTFILL
 70
     0
  9
$DIMTFILLCLR
 70
     0
  9
$DIMARCSYM
 70
     0
  9
$DIMLTYPE
  6

  9
$DIMLTEX1
  6

  9
$DIMLTEX2
  6

  9
$DIMTXTDIRECTION
 70
     0
  9
$LUNITS
 70
     2
  9
$LUPREC
 70
     4
  9
$SKETCHINC
 40
0.1
  9
$FILLETRAD
 40
0.0
  9
$AUNITS
 70
     0
  9
$AUPREC
 70
     0
  9
$MENU
  1
.
  9
$ELEVATION
 40
0.0
  9
$PELEVATION
 40
0.0
  9
$THICKNESS
 40
0.0
  9
$LIMCHECK
 70
     0
  9
$CHAMFERA
 40
0.0
  9
$CHAMFERB
 40
0.0
  9
$CHAMFERC
 40
0.0
  9
$CHAMFERD
 40
0.0
  9
$SKPOLY
 70
     0
  9
$TDCREATE
 40
2460636.695685463
  9
$TDUCREATE
 40
2460636.654018797
  9
$TDUPDATE
 40
2460636.695685764
  9
$TDUUPDATE
 40
2460636.654019097
  9
$TDINDWG
 40
0.0000000116
  9
$TDUSRTIMER
 40
0.0000000116
  9
$USRTIMER
 70
     1
  9
$ANGBASE
 50
0.0
  9
$ANGDIR
 70
     0
  9
$PDMODE
 70
     0
  9
$PDSIZE
 40
0.0
  9
$PLINEWID
 40
0.0
  9
$SPLFRAME
 70
     0
  9
$SPLINETYPE
 70
     6
  9
$SPLINESEGS
 70
     8
  9
$HANDSEED
  5
456
  9
$SURFTAB1
 70
     6
  9
$SURFTAB2
 70
     6
  9
$SURFTYPE
 70
     6
  9
$SURFU
 70
     6
  9
$SURFV
 70
     6
  9
$UCSBASE
  2

  9
$UCSNAME
  2

  9
$UCSORG
 10
0.0
 20
0.0
 30
0.0
  9
$UCSXDIR
 10
1.0
 20
0.0
 30
0.0
  9
$UCSYDIR
 10
0.0
 20
1.0
 30
0.0
  9
$UCSORTHOREF
  2

  9
$UCSORTHOVIEW
 70
     0
  9
$UCSORGTOP
 10
0.0
 20
0.0
 30
0.0
  9
$UCSORGBOTTOM
 10
0.0
 20
0.0
 30
0.0
  9
$UCSORGLEFT
 10
0.0
 20
0.0
 30
0.0
  9
$UCSORGRIGHT
 10
0.0
 20
0.0
 30
0.0
  9
$UCSORGFRONT
 10
0.0
 20
0.0
 30
0.0
  9
$UCSORGBACK
 10
0.0
 20
0.0
 30
0.0
  9
$PUCSBASE
  2

  9
$PUCSNAME
  2

  9
$PUCSORG
 10
0.0
 20
0.0
 30
0.0
  9
$PUCSXDIR
 10
1.0
 20
0.0
 30
0.0
  9
$PUCSYDIR
 10
0.0
 20
1.0
 30
0.0
  9
$PUCSORTHOREF
  2

  9
$PUCSORTHOVIEW
 70
     0
  9
$PUCSORGTOP
 10
0.0
 20
0.0
 30
0.0
  9
$PUCSORGBOTTOM
 10
0.0
 20
0.0
 30
0.0
  9
$PUCSORGLEFT
 10
0.0
 20
0.0
 30
0.0
  9
$PUCSORGRIGHT
 10
0.0
 20
0.0
 30
0.0
  9
$PUCSORGFRONT
 10
0.0
 20
0.0
 30
0.0
  9
$PUCSORGBACK
 10
0.0
 20
0.0
 30
0.0
  9
$USERI1
 70
     0
  9
$USERI2
 70
     0
  9
$USERI3
 70
     0
  9
$USERI4
 70
     0
  9
$USERI5
 70
     0
  9
$USERR1
 40
0.0
  9
$USERR2
 40
0.0
  9
$USERR3
 40
0.0
  9
$USERR4
 40
0.0
  9
$USERR5
 40
0.0
  9
$WORLDVIEW
 70
     1
  9
$SHADEDGE
 70
     3
  9
$SHADEDIF
 70
    70
  9
$TILEMODE
 70
     1
  9
$MAXACTVP
 70
    64
  9
$PINSBASE
 10
0.0
 20
0.0
 30
0.0
  9
$PLIMCHECK
 70
     0
  9
$PEXTMIN
 10
0.0
 20
0.0
 30
0.0
  9
$PEXTMAX
 10
0.0
 20
0.0
 30
0.0
  9
$PLIMMIN
 10
-20.0
 20
-7.5
  9
$PLIMMAX
 10
277.0
 20
202.5
  9
$UNITMODE
 70
     0
  9
$VISRETAIN
 70
     1
  9
$PLINEGEN
 70
     0
  9
$PSLTSCALE
 70
     1
  9
$TREEDEPTH
 70
  3020
  9
$CMLSTYLE
  2
Standard
  9
$CMLJUST
 70
     0
  9
$CMLSCALE
 40
1.0
  9
$PROXYGRAPHICS
 70
     1
  9
$MEASUREMENT
 70
     1
  9
$CELWEIGHT
370
    -1
  9
$ENDCAPS
280
     0
  9
$JOINSTYLE
280
     0
  9
$LWDISPLAY
290
     0
  9
$INSUNITS
 70
     4
  9
$HYPERLINKBASE
  1

  9
$STYLESHEET
  1

  9
$XEDIT
290
     1
  9
$CEPSNTYPE
380
     0
  9
$PSTYLEMODE
290
     1
  9
$FINGERPRINTGUID
  2
{733876b7-3071-6662-b836-6475b2383272}
  9
$VERSIONGUID
  2
{FAEB1C32-E019-11D5-929B-00C0DF256EC4}
  9
$EXTNAMES
290
     1
  9
$PSVPSCALE
 40
0.0
  9
$OLESTARTUP
290
     0
  9
$SORTENTS
280
   127
  9
$INDEXCTL
280
     0
  9
$HIDETEXT
280
     1
  9
$XCLIPFRAME
280
     2
  9
$HALOGAP
280
     0
  9
$OBSCOLOR
 70
   257
  9
$OBSLTYPE
280
     0
  9
$INTERSECTIONDISPLAY
280
     0
  9
$INTERSECTIONCOLOR
 70
   257
  9
$DIMASSOC
280
     2
  9
$PROJECTNAME
  1

  9
$CAMERADISPLAY
290
     0
  9
$LENSLENGTH
 40
50.0
  9
$CAMERAHEIGHT
 40
0.0
  9
$STEPSPERSEC
 40
2.0
  9
$STEPSIZE
 40
6.0
  9
$3DDWFPREC
 40
2.0
  9
$PSOLWIDTH
 40
0.25
  9
$PSOLHEIGHT
 40
4.0
  9
$LOFTANG1
 40
1.570796326794897
  9
$LOFTANG2
 40
1.570796326794897
  9
$LOFTMAG1
 40
0.0
  9
$LOFTMAG2
 40
0.0
  9
$LOFTPARAM
 70
     7
  9
$LOFTNORMALS
280
     1
  9
$LATITUDE
 40
37.795
  9
$LONGITUDE
 40
-122.394
  9
$NORTHDIRECTION
 40
0.0
  9
$TIMEZONE
 70
 -8000
  9
$LIGHTGLYPHDISPLAY
280
     1
  9
$TILEMODELIGHTSYNCH
280
     1
  9
$CMATERIAL
347
3B0
  9
$SOLIDHIST
280
     0
  9
$SHOWHIST
280
     1
  9
$DWFFRAME
280
     2
  9
$DGNFRAME
280
     2
  9
$REALWORLDSCALE
290
     1
  9
$INTERFERECOLOR
 62
   256
  9
$CSHADOW
280
     0
  9
$SHADOWPLANELOCATION
 40
0.0
  0
ENDSEC
  0
SECTION
  2
CLASSES
  0
CLASS
  1
ACDBDICTIONARYWDFLT
  2
AcDbDictionaryWithDefault
  3
ObjectDBX Classes
 90
        0
 91
        3
280
     0
281
     0
  0
CLASS
  1
VISUALSTYLE
  2
AcDbVisualStyle
  3
ObjectDBX Classes
 90
     4095
 91
        3
280
     0
281
     0
  0
CLASS
  1
MATERIAL
  2
AcDbMaterial
  3
ObjectDBX Classes
 90
     1153
 91
        3
280
     0
281
     0
  0
CLASS
  1
SCALE
  2
AcDbScale
  3
ObjectDBX Classes
 90
     1153
 91
        3
280
     0
281
     0
  0
CLASS
  1
TABLESTYLE
  2
AcDbTableStyle
  3
ObjectDBX Classes
 90
     4095
 91
        3
280
     0
281
     0
  0
CLASS
  1
MLEADERSTYLE
  2
AcDbMLeaderStyle
  3
ACDB_MLEADERSTYLE_CLASS
 90
     4095
 91
        3
280
     0
281
     0
  0
CLASS
  1
SUN
  2
AcDbSun
  3
SCENEOE
 90
     1153
 91
        3
280
     0
281
     0
  0
CLASS
  1
DICTIONARYVAR
  2
AcDbDictionaryVar
  3
ObjectDBX Classes
 90
        0
 91
        3
280
     0
281
     0
  0
CLASS
  1
CELLSTYLEMAP
  2
AcDbCellStyleMap
  3
ObjectDBX Classes
 90
     1152
 91
        3
280
     0
281
     0
  0
ENDSEC
  0
SECTION
  2
TABLES
  0
TABLE
  2
VPORT
  5
375
330
0
100
AcDbSymbolTable
 70
     1
  0
VPORT
  5
395
330
375
100
AcDbSymbolTableRecord
100
AcDbViewportTableRecord
  2
*Active
 70
     0
 10
0.0
 20
0.0
 11
1.0
 21
1.0
 12
108.4118554178736
 22
6.518957640246867
 13
0.0
 23
0.0
 14
0.5
 24
0.5
 15
0.5
 25
0.5
 16
0.0
 26
0.0
 36
1.0
 17
0.0
 27
0.0
 37
0.0
 40
950.0996637661588
 41
2.185810810810811
 42
50.0
 43
0.0
 44
0.0
 50
0.0
 51
0.0
 71
     0
 72
   100
 73
     1
 74
     3
 75
     0
 76
     0
 77
     0
 78
     0
281
     0
 65
     1
110
0.0
120
0.0
130
0.0
111
1.0
121
0.0
131
0.0
112
0.0
122
1.0
132
0.0
 79
     0
146
0.0
348
39B
 60
     3
 61
     5
292
     1
282
     1
141
0.0
142
0.0
 63
   250
361
3C9
  0
ENDTAB
  0
TABLE
  2
LTYPE
  5
372
330
0
100
AcDbSymbolTable
 70
    52
  0
LTYPE
  5
380
330
372
100
AcDbSymbolTableRecord
100
AcDbLinetypeTableRecord
  2
ByBlock
 70
     0
  3

 72
    65
 73
     0
 40
0.0
  0
LTYPE
  5
381
330
372
100
AcDbSymbolTableRecord
100
AcDbLinetypeTableRecord
  2
ByLayer
 70
     0
  3

 72
    65
 73
     0
 40
0.0
  0
LTYPE
  5
382
330
372
100
AcDbSymbolTableRecord
100
AcDbLinetypeTableRecord
  2
Continuous
 70
     0
  3
Solid line
 72
    65
 73
     0
 40
0.0
  0
LTYPE
  5
404
330
372
100
AcDbSymbolTableRecord
100
AcDbLinetypeTableRecord
  2
BORDER2
 70
     0
  3
Border (.5x) __.__.__.__.__.__.__.__.__.__.__.
 72
    65
 73
     6
 40
22.225
 49
6.35
 74
     0
 49
-3.175
 74
     0
 49
6.35
 74
     0
 49
-3.175
 74
     0
 49
0.0
 74
     0
 49
-3.175
 74
     0
  0
LTYPE
  5
405
330
372
100
AcDbSymbolTableRecord
100
AcDbLinetypeTableRecord
  2
BORDERX2
 70
     0
  3
Border (2x) ____  ____  .  ____  ____  .  ___
 72
    65
 73
     6
 40
88.89999999999999
 49
25.4
 74
     0
 49
-12.7
 74
     0
 49
25.4
 74
     0
 49
-12.7
 74
     0
 49
0.0
 74
     0
 49
-12.7
 74
     0
  0
LTYPE
  5
407
330
372
100
AcDbSymbolTableRecord
100
AcDbLinetypeTableRecord
  2
CUTLEFT2
 70
     0
  3
G41 reversed----/----/----/----
 72
    65
 73
     2
 40
10.16
 49
5.08
 74
     2
 75
     0
340
406
 46
2.54
 50
0.0
 44
0.0
 45
0.0
  9
LRIGHT_ARROW
 49
5.08
 74
     0
  0
LTYPE
  5
408
330
372
100
AcDbSymbolTableRecord
100
AcDbLinetypeTableRecord
  2
CUTRIGHT
 70
     0
  3
G42 ----/----/-----/---
 72
    65
 73
     2
 40
10.16
 49
5.08
 74
     2
 75
     0
340
406
 46
2.54
 50
180.0
 44
0.0
 45
0.0
  9
HRIGHT_ARROW
 49
5.08
 74
     0
  0
LTYPE
  5
409
330
372
100
AcDbSymbolTableRecord
100
AcDbLinetypeTableRecord
  2
CENTERX2
 70
     0
  3
Center (2x) ________  __  ________  __  _____
 72
    65
 73
     4
 40
101.6
 49
63.5
 74
     0
 49
-12.7
 74
     0
 49
12.7
 74
     0
 49
-12.7
 74
     0
  0
LTYPE
  5
40A
330
372
100
AcDbSymbolTableRecord
100
AcDbLinetypeTableRecord
  2
CUTLEFT
 70
     0
  3
G41 ----\----\----\----
 72
    65
 73
     2
 40
10.16
 49
5.08
 74
     2
 75
     0
340
406
 46
2.54
 50
180.0
 44
0.0
 45
0.0
  9
LRIGHT_ARROW
 49
5.08
 74
     0
  0
LTYPE
  5
40B
330
372
100
AcDbSymbolTableRecord
100
AcDbLinetypeTableRecord
  2
DASHDOT2
 70
     0
  3
Dash dot (.5x) _._._._._._._._._._._._._._._.
 72
    65
 73
     4
 40
12.7
 49
6.35
 74
     0
 49
-3.175
 74
     0
 49
0.0
 74
     0
 49
-3.175
 74
     0
  0
LTYPE
  5
40C
330
372
100
AcDbSymbolTableRecord
100
AcDbLinetypeTableRecord
  2
DASHDOTX2
 70
     0
  3
Dash dot (2x) ____  .  ____  .  ____  .  ___
 72
    65
 73
     4
 40
50.8
 49
25.4
 74
     0
 49
-12.7
 74
     0
 49
0.0
 74
     0
 49
-12.7
 74
     0
  0
LTYPE
  5
40D
330
372
100
AcDbSymbolTableRecord
100
AcDbLinetypeTableRecord
  2
CUTRIGHT2
 70
     0
  3
G42 reversed----\----\----\----
 72
    65
 73
     2
 40
10.16
 49
5.08
 74
     2
 75
     0
340
406
 46
2.54
 50
0.0
 44
0.0
 45
0.0
  9
HRIGHT_ARROW
 49
5.08
 74
     0
  0
LTYPE
  5
40E
330
372
100
AcDbSymbolTableRecord
100
AcDbLinetypeTableRecord
  2
DASHDOT
 70
     0
  3
Dash dot __ . __ . __ . __ . __ . __ . __ . __
 72
    65
 73
     4
 40
25.4
 49
12.7
 74
     0
 49
-6.35
 74
     0
 49
0.0
 74
     0
 49
-6.35
 74
     0
  0
LTYPE
  5
40F
330
372
100
AcDbSymbolTableRecord
100
AcDbLinetypeTableRecord
  2
DASHEDX2
 70
     0
  3
Dashed (2x) ____  ____  ____  ____  ____  ___
 72
    65
 73
     2
 40
38.09999999999999
 49
25.4
 74
     0
 49
-12.7
 74
     0
  0
LTYPE
  5
410
330
372
100
AcDbSymbolTableRecord
100
AcDbLinetypeTableRecord
  2
DIVIDE
 70
     0
  3
Divide ____ . . ____ . . ____ . . ____ . . ____
 72
    65
 73
     6
 40
31.75
 49
12.7
 74
     0
 49
-6.35
 74
     0
 49
0.0
 74
     0
 49
-6.35
 74
     0
 49
0.0
 74
     0
 49
-6.35
 74
     0
  0
LTYPE
  5
411
330
372
100
AcDbSymbolTableRecord
100
AcDbLinetypeTableRecord
  2
DASHED
 70
     0
  3
Dashed __ __ __ __ __ __ __ __ __ __ __ __ __ _
 72
    65
 73
     2
 40
19.05
 49
12.7
 74
     0
 49
-6.35
 74
     0
  0
LTYPE
  5
412
330
372
100
AcDbSymbolTableRecord
100
AcDbLinetypeTableRecord
  2
DASHED2
 70
     0
  3
Dashed (.5x) _ _ _ _ _ _ _ _ _ _ _ _ _ _ _ _ _ 
 72
    65
 73
     2
 40
9.524999999999999
 49
6.35
 74
     0
 49
-3.175
 74
     0
  0
LTYPE
  5
413
330
372
100
AcDbSymbolTableRecord
100
AcDbLinetypeTableRecord
  2
DOT
 70
     0
  3
Dot . . . . . . . . . . . . . . . . . . . . . . . .
 72
    65
 73
     2
 40
6.35
 49
0.0
 74
     0
 49
-6.35
 74
     0
  0
LTYPE
  5
414
330
372
100
AcDbSymbolTableRecord
100
AcDbLinetypeTableRecord
  2
DOT2
 70
     0
  3
Dot (.5x) ........................................
 72
    65
 73
     2
 40
3.175
 49
0.0
 74
     0
 49
-3.175
 74
     0
  0
LTYPE
  5
415
330
372
100
AcDbSymbolTableRecord
100
AcDbLinetypeTableRecord
  2
DIVIDE2
 70
     0
  3
Divide (.5x) __..__..__..__..__..__..__..__.._
 72
    65
 73
     6
 40
15.875
 49
6.35
 74
     0
 49
-3.175
 74
     0
 49
0.0
 74
     0
 49
-3.175
 74
     0
 49
0.0
 74
     0
 49
-3.175
 74
     0
  0
LTYPE
  5
416
330
372
100
AcDbSymbolTableRecord
100
AcDbLinetypeTableRecord
  2
DIVIDEX2
 70
     0
  3
Divide (2x) ________  .  .  ________  .  .  _
 72
    65
 73
     6
 40
63.5
 49
25.4
 74
     0
 49
-12.7
 74
     0
 49
0.0
 74
     0
 49
-12.7
 74
     0
 49
0.0
 74
     0
 49
-12.7
 74
     0
  0
LTYPE
  5
417
330
372
100
AcDbSymbolTableRecord
100
AcDbLinetypeTableRecord
  2
DRAINAGE2
 70
     0
  3
Drainage reversed----<----<----<----
 72
    65
 73
     2
 40
10.16
 49
5.08
 74
     2
 75
     0
340
406
 46
2.54
 50
0.0
 44
0.0
 45
0.0
  9
RIGHT_ARROW
 49
5.08
 74
     0
  0
LTYPE
  5
419
330
372
100
AcDbSymbolTableRecord
100
AcDbLinetypeTableRecord
  2
FENCELINE1
 70
     0
  3
Fenceline circle ----0-----0----0-----0----0-----0--
 72
    65
 73
     4
 40
36.83
 49
6.35
 74
     0
 49
-2.54
 74
     2
 75
     0
340
418
 46
2.54
 50
0.0
 44
-2.54
 45
0.0
  9
CIRC1
 49
-2.54
 74
     0
 49
25.4
 74
     0
  0
LTYPE
  5
41A
330
372
100
AcDbSymbolTableRecord
100
AcDbLinetypeTableRecord
  2
DOTX2
 70
     0
  3
Dot (2x) .  .  .  .  .  .  .  .  .  .  .  .  .  .
 72
    65
 73
     2
 40
12.7
 49
0.0
 74
     0
 49
-12.7
 74
     0
  0
LTYPE
  5
41B
330
372
100
AcDbSymbolTableRecord
100
AcDbLinetypeTableRecord
  2
DRAINAGE
 70
     0
  3
Drainage ---->---->---->----
 72
    65
 73
     2
 40
10.16
 49
5.08
 74
     2
 75
     0
340
406
 46
2.54
 50
180.0
 44
0.0
 45
0.0
  9
RIGHT_ARROW
 49
5.08
 74
     0
  0
LTYPE
  5
41C
330
372
100
AcDbSymbolTableRecord
100
AcDbLinetypeTableRecord
  2
HIDDEN
 70
     0
  3
Hidden __ __ __ __ __ __ __ __ __ __ __ __ __ __
 72
    65
 73
     2
 40
9.524999999999999
 49
6.35
 74
     0
 49
-3.175
 74
     0
  0
LTYPE
  5
41D
330
372
100
AcDbSymbolTableRecord
100
AcDbLinetypeTableRecord
  2
HIDDEN2
 70
     0
  3
Hidden (.5x) _ _ _ _ _ _ _ _ _ _ _ _ _ _ _ _ _ 
 72
    65
 73
     2
 40
4.762499999999999
 49
3.175
 74
     0
 49
-1.5875
 74
     0
  0
LTYPE
  5
41E
330
372
100
AcDbSymbolTableRecord
100
AcDbLinetypeTableRecord
  2
FENCELINE2
 70
     0
  3
Fenceline square ----[]-----[]----[]-----[]----[]---
 72
    65
 73
     4
 40
36.83
 49
6.35
 74
     0
 49
-2.54
 74
     2
 75
     0
340
418
 46
2.54
 50
0.0
 44
-2.54
 45
0.0
  9
BOX
 49
-2.54
 74
     0
 49
25.4
 74
     0
  0
LTYPE
  5
420
330
372
100
AcDbSymbolTableRecord
100
AcDbLinetypeTableRecord
  2
GAS_LINE
 70
     0
  3
Gas line ----GAS----GAS----GAS----GAS----GAS----GAS--
 72
    65
 73
     3
 40
24.13
 49
12.7
 74
     0
 49
-5.08
 74
     2
 75
     0
340
41F
 46
2.54
 50
0.0
 44
-2.54
 45
-1.27
  9
GAS
 49
-6.35
 74
     0
  0
LTYPE
  5
421
330
372
100
AcDbSymbolTableRecord
100
AcDbLinetypeTableRecord
  2
PHANTOM
 70
     0
  3
Phantom ______  __  __  ______  __  __  ______ 
 72
    65
 73
     6
 40
63.50000000000001
 49
31.75
 74
     0
 49
-6.35
 74
     0
 49
6.35
 74
     0
 49
-6.35
 74
     0
 49
6.35
 74
     0
 49
-6.35
 74
     0
  0
LTYPE
  5
422
330
372
100
AcDbSymbolTableRecord
100
AcDbLinetypeTableRecord
  2
PHANTOM2
 70
     0
  3
Phantom (.5x) ___ _ _ ___ _ _ ___ _ _ ___ _ _
 72
    65
 73
     6
 40
31.75
 49
15.875
 74
     0
 49
-3.175
 74
     0
 49
3.175
 74
     0
 49
-3.175
 74
     0
 49
3.175
 74
     0
 49
-3.175
 74
     0
  0
LTYPE
  5
423
330
372
100
AcDbSymbolTableRecord
100
AcDbLinetypeTableRecord
  2
HIDDENX2
 70
     0
  3
Hidden (2x) ____ ____ ____ ____ ____ ____ ____ 
 72
    65
 73
     2
 40
19.05
 49
12.7
 74
     0
 49
-6.35
 74
     0
  0
LTYPE
  5
424
330
372
100
AcDbSymbolTableRecord
100
AcDbLinetypeTableRecord
  2
HOT_WATER_SUPPLY
 70
     0
  3
Hot water supply ---- HW ---- HW ---- HW ----
 72
    65
 73
     3
 40
22.86
 49
12.7
 74
     0
 49
-5.08
 74
     2
 75
     0
340
41F
 46
2.54
 50
0.0
 44
-2.54
 45
-1.27
  9
HW
 49
-5.08
 74
     0
  0
LTYPE
  5
425
330
372
100
AcDbSymbolTableRecord
100
AcDbLinetypeTableRecord
  2
ZIGZAG
 70
     0
  3
Zig zag /\/\/\/\/\/\/\/\/\/\/\/\/\/\/\/\/\/\/\/\/\/\/\/
 72
    65
 73
     4
 40
20.32254
 49
0.00254
 74
     0
 49
-5.08
 74
     2
 75
     0
340
418
 46
5.08
 50
0.0
 44
-5.08
 45
0.0
  9
ZIG
 49
-10.16
 74
     2
 75
     0
340
418
 46
5.08
 50
180.0
 44
5.08
 45
0.0
  9
ZIG
 49
-5.08
 74
     0
  0
LTYPE
  5
426
330
372
100
AcDbSymbolTableRecord
100
AcDbLinetypeTableRecord
  2
PHANTOMX2
 70
     0
  3
Phantom (2x) ____________    ____    ____   _
 72
    65
 73
     6
 40
127.0
 49
63.5
 74
     0
 49
-12.7
 74
     0
 49
12.7
 74
     0
 49
-12.7
 74
     0
 49
12.7
 74
     0
 49
-12.7
 74
     0
  0
LTYPE
  5
427
330
372
100
AcDbSymbolTableRecord
100
AcDbLinetypeTableRecord
  2
TRACKS
 70
     0
  3
Tracks -|-|-|-|-|-|-|-|-|-|-|-|-|-|-|-|-|-|-|-|-|-|-|-|-
 72
    65
 73
     2
 40
7.62
 49
3.81
 74
     2
 75
     0
340
418
 46
6.35
 50
0.0
 44
0.0
 45
0.0
  9
TRACK1
 49
3.81
 74
     0
  0
LTYPE
  5
428
330
372
100
AcDbSymbolTableRecord
100
AcDbLinetypeTableRecord
  2
ACAD_ISO04W100
 70
     0
  3
ISO long-dash dot ____ . ____ . ____ . ____ . _
 72
    65
 73
     4
 40
30.0
 49
24.0
 74
     0
 49
-3.0
 74
     0
 49
0.0
 74
     0
 49
-3.0
 74
     0
  0
LTYPE
  5
429
330
372
100
AcDbSymbolTableRecord
100
AcDbLinetypeTableRecord
  2
ACAD_ISO05W100
 70
     0
  3
ISO long-dash double-dot ____ .. ____ .. ____ . 
 72
    65
 73
     6
 40
33.0
 49
24.0
 74
     0
 49
-3.0
 74
     0
 49
0.0
 74
     0
 49
-3.0
 74
     0
 49
0.0
 74
     0
 49
-3.0
 74
     0
  0
LTYPE
  5
42A
330
372
100
AcDbSymbolTableRecord
100
AcDbLinetypeTableRecord
  2
ACAD_ISO02W100
 70
     0
  3
ISO dash __ __ __ __ __ __ __ __ __ __ __ __ __
 72
    65
 73
     2
 40
15.0
 49
12.0
 74
     0
 49
-3.0
 74
     0
  0
LTYPE
  5
42B
330
372
100
AcDbSymbolTableRecord
100
AcDbLinetypeTableRecord
  2
ACAD_ISO03W100
 70
     0
  3
ISO dash space __    __    __    __    __    __
 72
    65
 73
     2
 40
30.0
 49
12.0
 74
     0
 49
-18.0
 74
     0
  0
LTYPE
  5
42C
330
372
100
AcDbSymbolTableRecord
100
AcDbLinetypeTableRecord
  2
ACAD_ISO08W100
 70
     0
  3
ISO long-dash short-dash ____ __ ____ __ ____ _
 72
    65
 73
     4
 40
36.0
 49
24.0
 74
     0
 49
-3.0
 74
     0
 49
6.0
 74
     0
 49
-3.0
 74
     0
  0
LTYPE
  5
42D
330
372
100
AcDbSymbolTableRecord
100
AcDbLinetypeTableRecord
  2
ACAD_ISO09W100
 70
     0
  3
ISO long-dash double-short-dash ____ __ __ ____
 72
    65
 73
     6
 40
45.0
 49
24.0
 74
     0
 49
-3.0
 74
     0
 49
6.0
 74
     0
 49
-3.0
 74
     0
 49
6.0
 74
     0
 49
-3.0
 74
     0
  0
LTYPE
  5
42E
330
372
100
AcDbSymbolTableRecord
100
AcDbLinetypeTableRecord
  2
ACAD_ISO06W100
 70
     0
  3
ISO long-dash triple-dot ____ ... ____ ... ____
 72
    65
 73
     8
 40
36.0
 49
24.0
 74
     0
 49
-3.0
 74
     0
 49
0.0
 74
     0
 49
-3.0
 74
     0
 49
0.0
 74
     0
 49
-3.0
 74
     0
 49
0.0
 74
     0
 49
-3.0
 74
     0
  0
LTYPE
  5
42F
330
372
100
AcDbSymbolTableRecord
100
AcDbLinetypeTableRecord
  2
ACAD_ISO07W100
 70
     0
  3
ISO dot . . . . . . . . . . . . . . . . . . . . 
 72
    65
 73
     2
 40
3.0
 49
0.0
 74
     0
 49
-3.0
 74
     0
  0
LTYPE
  5
430
330
372
100
AcDbSymbolTableRecord
100
AcDbLinetypeTableRecord
  2
ACAD_ISO12W100
 70
     0
  3
ISO dash double-dot __ . . __ . . __ . . __ . . 
 72
    65
 73
     6
 40
21.0
 49
12.0
 74
     0
 49
-3.0
 74
     0
 49
0.0
 74
     0
 49
-3.0
 74
     0
 49
0.0
 74
     0
 49
-3.0
 74
     0
  0
LTYPE
  5
431
330
372
100
AcDbSymbolTableRecord
100
AcDbLinetypeTableRecord
  2
ACAD_ISO13W100
 70
     0
  3
ISO double-dash double-dot __ __ . . __ __ . . _
 72
    65
 73
     8
 40
36.0
 49
12.0
 74
     0
 49
-3.0
 74
     0
 49
12.0
 74
     0
 49
-3.0
 74
     0
 49
0.0
 74
     0
 49
-3.0
 74
     0
 49
0.0
 74
     0
 49
-3.0
 74
     0
  0
LTYPE
  5
432
330
372
100
AcDbSymbolTableRecord
100
AcDbLinetypeTableRecord
  2
ACAD_ISO10W100
 70
     0
  3
ISO dash dot __ . __ . __ . __ . __ . __ . __ . 
 72
    65
 73
     4
 40
18.0
 49
12.0
 74
     0
 49
-3.0
 74
     0
 49
0.0
 74
     0
 49
-3.0
 74
     0
  0
LTYPE
  5
433
330
372
100
AcDbSymbolTableRecord
100
AcDbLinetypeTableRecord
  2
ACAD_ISO11W100
 70
     0
  3
ISO double-dash dot __ __ . __ __ . __ __ . __ _
 72
    65
 73
     6
 40
33.0
 49
12.0
 74
     0
 49
-3.0
 74
     0
 49
12.0
 74
     0
 49
-3.0
 74
     0
 49
0.0
 74
     0
 49
-3.0
 74
     0
  0
LTYPE
  5
434
330
372
100
AcDbSymbolTableRecord
100
AcDbLinetypeTableRecord
  2
BATTING
 70
     0
  3
Batting SSSSSSSSSSSSSSSSSSSSSSSSSSSSSSSSSSSSSSSSSSSSSSS
 72
    65
 73
     4
 40
10.16254
 49
0.00254
 74
     0
 49
-2.54
 74
     2
 75
     0
340
418
 46
2.54
 50
0.0
 44
-2.54
 45
0.0
  9
BAT
 49
-5.08
 74
     2
 75
     0
340
418
 46
2.54
 50
180.0
 44
2.54
 45
0.0
  9
BAT
 49
-2.54
 74
     0
  0
LTYPE
  5
435
330
372
100
AcDbSymbolTableRecord
100
AcDbLinetypeTableRecord
  2
BORDER
 70
     0
  3
Border __ __ . __ __ . __ __ . __ __ . __ __ .
 72
    65
 73
     6
 40
44.45
 49
12.7
 74
     0
 49
-6.35
 74
     0
 49
12.7
 74
     0
 49
-6.35
 74
     0
 49
0.0
 74
     0
 49
-6.35
 74
     0
  0
LTYPE
  5
436
330
372
100
AcDbSymbolTableRecord
100
AcDbLinetypeTableRecord
  2
ACAD_ISO14W100
 70
     0
  3
ISO dash triple-dot __ . . . __ . . . __ . . . _
 72
    65
 73
     8
 40
24.0
 49
12.0
 74
     0
 49
-3.0
 74
     0
 49
0.0
 74
     0
 49
-3.0
 74
     0
 49
0.0
 74
     0
 49
-3.0
 74
     0
 49
0.0
 74
     0
 49
-3.0
 74
     0
  0
LTYPE
  5
437
330
372
100
AcDbSymbolTableRecord
100
AcDbLinetypeTableRecord
  2
ACAD_ISO15W100
 70
     0
  3
ISO double-dash triple-dot __ __ . . . __ __ . .
 72
    65
 73
    10
 40
39.0
 49
12.0
 74
     0
 49
-3.0
 74
     0
 49
12.0
 74
     0
 49
-3.0
 74
     0
 49
0.0
 74
     0
 49
-3.0
 74
     0
 49
0.0
 74
     0
 49
-3.0
 74
     0
 49
0.0
 74
     0
 49
-3.0
 74
     0
  0
LTYPE
  5
438
330
372
100
AcDbSymbolTableRecord
100
AcDbLinetypeTableRecord
  2
CENTER
 70
     0
  3
Center ____ _ ____ _ ____ _ ____ _ ____ _ ____
 72
    65
 73
     4
 40
50.8
 49
31.75
 74
     0
 49
-6.35
 74
     0
 49
6.35
 74
     0
 49
-6.35
 74
     0
  0
LTYPE
  5
439
330
372
100
AcDbSymbolTableRecord
100
AcDbLinetypeTableRecord
  2
CENTER2
 70
     0
  3
Center (.5x) ___ _ ___ _ ___ _ ___ _ ___ _ ___
 72
    65
 73
     4
 40
28.575
 49
19.05
 74
     0
 49
-3.175
 74
     0
 49
3.175
 74
     0
 49
-3.175
 74
     0
  0
ENDTAB
  0
TABLE
  2
LAYER
  5
370
330
0
100
AcDbSymbolTable
 70
    17
  0
LAYER
  5
37D
330
370
100
AcDbSymbolTableRecord
100
AcDbLayerTableRecord
  2
0
 70
     0
 62
     7
  6
Continuous
370
    25
390
37C
347
3B2
348
0
  0
LAYER
  5
43A
330
370
100
AcDbSymbolTableRecord
100
AcDbLayerTableRecord
  2
0_Outside
 70
     0
 62
     1
  6
Continuous
370
     0
390
37C
347
3B2
348
0
  0
LAYER
  5
43B
330
370
100
AcDbSymbolTableRecord
100
AcDbLayerTableRecord
  2
1_DRILL
 70
     0
 62
     2
  6
Continuous
370
    -3
390
37C
347
3B2
348
0
  0
LAYER
  5
43C
330
370
100
AcDbSymbolTableRecord
100
AcDbLayerTableRecord
  2
1_INCUT
 70
     0
 62
     5
  6
Continuous
370
    -3
390
37C
347
3B2
348
0
  0
LAYER
  5
43D
330
370
100
AcDbSymbolTableRecord
100
AcDbLayerTableRecord
  2
1_OUTCUT
 70
     0
 62
     1
  6
Continuous
370
    -3
390
37C
347
3B2
348
0
  0
LAYER
  5
43E
330
370
100
AcDbSymbolTableRecord
100
AcDbLayerTableRecord
  2
1_POCKET
 70
     0
 62
    30
  6
Continuous
370
    -3
390
37C
347
3B2
348
0
1001
QCAD
1000
collapsed:1
  0
LAYER
  5
43F
330
370
100
AcDbSymbolTableRecord
100
AcDbLayerTableRecord
  2
1_POCKET ... 5mm
 70
     0
 62
    16
420
  8388608
  6
Continuous
370
    -3
390
37C
347
3B2
348
0
  0
LAYER
  5
440
330
370
100
AcDbSymbolTableRecord
100
AcDbLayerTableRecord
  2
1_SETUP
 70
     0
 62
     6
  6
Continuous
370
    -3
390
37C
347
3B2
348
0
  0
LAYER
  5
441
330
370
100
AcDbSymbolTableRecord
100
AcDbLayerTableRecord
  2
04_INSIDE
 70
     0
 62
     5
  6
Continuous
370
    25
390
37C
347
3B2
348
0
  0
LAYER
  5
442
330
370
100
AcDbSymbolTableRecord
100
AcDbLayerTableRecord
  2
05_OUTSIDE
 70
     0
 62
     1
  6
Continuous
370
    -3
390
37C
347
3B2
348
0
  0
LAYER
  5
443
330
370
100
AcDbSymbolTableRecord
100
AcDbLayerTableRecord
  2
drill
 70
     0
 62
     2
  6
Continuous
370
    25
390
37C
347
3B2
348
0
  0
LAYER
  5
444
330
370
100
AcDbSymbolTableRecord
100
AcDbLayerTableRecord
  2
Engrave
 70
     0
 62
    30
  6
Continuous
370
    25
390
37C
347
3B2
348
0
  0
LAYER
  5
445
330
370
100
AcDbSymbolTableRecord
100
AcDbLayerTableRecord
  2
in_cut
 70
     0
 62
     5
  6
Continuous
370
    25
390
37C
347
3B2
348
0
  0
LAYER
  5
446
330
370
100
AcDbSymbolTableRecord
100
AcDbLayerTableRecord
  2
out_cut
 70
     0
 62
     1
  6
Continuous
370
    25
390
37C
347
3B2
348
0
  0
LAYER
  5
447
330
370
100
AcDbSymbolTableRecord
100
AcDbLayerTableRecord
  2
pocket
 70
     0
 62
     6
  6
Continuous
370
    25
390
37C
347
3B2
348
0
  0
LAYER
  5
448
330
370
100
AcDbSymbolTableRecord
100
AcDbLayerTableRecord
  2
setup
 70
     0
 62
   216
420
  8388736
  6
Continuous
370
    25
390
37C
347
3B2
348
0
  0
LAYER
  5
449
330
370
100
AcDbSymbolTableRecord
100
AcDbLayerTableRecord
  2
Shape2DView
 70
     0
 62
     7
  6
Continuous
370
    -3
390
37C
347
3B2
348
0
  0
ENDTAB
  0
TABLE
  2
STYLE
  5
371
330
0
100
AcDbSymbolTable
 70
     5
  0
STYLE
  5
37E
330
371
100
AcDbSymbolTableRecord
100
AcDbTextStyleTableRecord
  2
Standard
 70
     0
 40
0.0
 41
1.0
 50
0.0
 71
     0
 42
0.2
  3
txt
  4

  0
STYLE
  5
406
330
371
100
AcDbSymbolTableRecord
100
AcDbTextStyleTableRecord
  2
textstyle0
 70
     0
 40
0.0
 41
1.0
 50
0.0
 71
     0
 42
0.2
  3
qcadshp.shx
  4

  0
STYLE
  5
418
330
371
100
AcDbSymbolTableRecord
100
AcDbTextStyleTableRecord
  2
textstyle1
 70
     0
 40
0.0
 41
1.0
 50
0.0
 71
     0
 42
0.2
  3
ltypeshp.shx
  4

  0
STYLE
  5
41F
330
371
100
AcDbSymbolTableRecord
100
AcDbTextStyleTableRecord
  2
textstyle2
 70
     0
 40
0.0
 41
1.0
 50
0.0
 71
     0
 42
0.2
  3
STANDARD
  4

  0
STYLE
  5
44C
330
371
100
AcDbSymbolTableRecord
100
AcDbTextStyleTableRecord
  2
textstyle3
 70
     0
 40
0.0
 41
1.0
 50
0.0
 71
     0
 42
0.2
  3

  4

1001
ACAD
1000
Standard
1071
        0
  0
ENDTAB
  0
TABLE
  2
VIEW
  5
373
330
0
100
AcDbSymbolTable
 70
     0
  0
ENDTAB
  0
TABLE
  2
UCS
  5
374
330
0
100
AcDbSymbolTable
 70
     0
  0
ENDTAB
  0
TABLE
  2
APPID
  5
376
330
0
100
AcDbSymbolTable
 70
     2
  0
APPID
  5
37F
330
376
100
AcDbSymbolTableRecord
100
AcDbRegAppTableRecord
  2
ACAD
 70
     0
  0
APPID
  5
3CA
330
376
100
AcDbSymbolTableRecord
100
AcDbRegAppTableRecord
  2
QCAD
 70
     0
  0
ENDTAB
  0
TABLE
  2
DIMSTYLE
  5
377
330
0
100
AcDbSymbolTable
 70
     2
100
AcDbDimStyleTable
  0
DIMSTYLE
105
393
330
377
100
AcDbSymbolTableRecord
100
AcDbDimStyleTableRecord
  2
Standard
 70
     0
178
     0
340
37E
  0
DIMSTYLE
105
403
330
377
100
AcDbSymbolTableRecord
100
AcDbDimStyleTableRecord
  2
QCADDimStyle
 70
     0
 41
2.5
 42
0.625
 43
5.0
 44
1.25
 73
     0
 77
     1
 78
     8
 79
     2
140
2.5
147
0.625
178
     0
279
     2
340
37E
  0
ENDTAB
  0
TABLE
  2
BLOCK_RECORD
  5
36F
330
0
100
AcDbSymbolTable
 70
     0
  0
BLOCK_RECORD
  5
38B
330
36F
100
AcDbSymbolTableRecord
100
AcDbBlockTableRecord
  2
*Model_Space
340
38E
 70
     0
280
     1
281
     0
  0
BLOCK_RECORD
  5
387
330
36F
100
AcDbSymbolTableRecord
100
AcDbBlockTableRecord
  2
*Paper_Space
340
38A
 70
     0
280
     1
281
     0
  0
ENDTAB
  0
ENDSEC
  0
SECTION
  2
BLOCKS
  0
BLOCK
  5
38C
330
38B
100
AcDbEntity
  8
0
100
AcDbBlockBegin
  2
*Model_Space
 70
     0
 10
0.0
 20
0.0
 30
0.0
  3
*Model_Space
  1

  0
ENDBLK
  5
38D
330
38B
100
AcDbEntity
  8
0
100
AcDbBlockEnd
  0
BLOCK
  5
388
330
387
100
AcDbEntity
 67
     1
  8
0
100
AcDbBlockBegin
  2
*Paper_Space
 70
     0
 10
0.0
 20
0.0
 30
0.0
  3
*Paper_Space
  1

  0
ENDBLK
  5
389
330
387
100
AcDbEntity
 67
     1
  8
0
100
AcDbBlockEnd
  0
ENDSEC
  0
SECTION
  2
ENTITIES
  0
CIRCLE
  5
1AC
330
38B
100
AcDbEntity
  8
0_Outside
100
AcDbCircle
 10
248.8904331286177
 20
30.64417106607401
 30
0.0
 40
1.25
  0
CIRCLE
  5
2D1
330
38B
100
AcDbEntity
  8
1_INCUT
100
AcDbCircle
 10
47.5
 20
-325.0
 30
0.0
 40
2.75
  0
CIRCLE
  5
2D2
330
38B
100
AcDbEntity
  8
1_INCUT
100
AcDbCircle
 10
187.5
 20
-325.0
 30
0.0
 40
2.75
  0
LWPOLYLINE
  5
2F1
330
38B
100
AcDbEntity
  8
04_INSIDE
100
AcDbPolyline
 90
        2
 70
   129
 43
0.0
 10
344.0010817015468
 20
-106.25
 42
0.9999999999999999
 10
367.0010817015468
 20
-106.25
 42
0.9999999999999999
  0
CIRCLE
  5
2F2
330
38B
100
AcDbEntity
  8
1_INCUT
100
AcDbCircle
 10
573.7280570695667
 20
-123.543920461646
 30
0.0
 40
11.0
  0
CIRCLE
  5
1AD
330
38B
100
AcDbEntity
  8
0_Outside
100
AcDbCircle
 10
350.8904331286177
 20
30.64417106607401
 30
0.0
 40
1.25
  0
CIRCLE
  5
2F3
330
38B
100
AcDbEntity
  8
1_INCUT
100
AcDbCircle
 10
552.9999864097657
 20
-72.66986951044179
 30
0.0
 40
2.5
  0
CIRCLE
  5
1AE
330
38B
100
AcDbEntity
  8
0_Outside
100
AcDbCircle
 10
350.8904331286177
 20
106.644171066074
 30
0.0
 40
1.25
  0
CIRCLE
  5
2D3
330
38B
100
AcDbEntity
  8
1_INCUT
100
AcDbCircle
 10
67.5
 20
-325.0
 30
0.0
 40
2.75
  0
CIRCLE
  5
2D4
330
38B
100
AcDbEntity
  8
1_INCUT
100
AcDbCircle
 10
207.5
 20
-325.0
 30
0.0
 40
2.75
  0
LWPOLYLINE
  5
2F4
330
38B
100
AcDbEntity
  8
04_INSIDE
100
AcDbPolyline
 90
        2
 70
   129
 43
0.0
 10
404.0010817015468
 20
-86.24999999999999
 42
0.9999999999999999
 10
427.0010817015468
 20
-86.24999999999999
 42
0.9999999999999999
  0
CIRCLE
  5
2F5
330
38B
100
AcDbEntity
  8
1_INCUT
100
AcDbCircle
 10
552.9999864097657
 20
-82.66986951044179
 30
0.0
 40
2.5
  0
CIRCLE
  5
1AF
330
38B
100
AcDbEntity
  8
0_Outside
100
AcDbCircle
 10
248.8904331286177
 20
106.644171066074
 30
0.0
 40
1.25
  0
CIRCLE
  5
2F6
330
38B
100
AcDbEntity
  8
1_INCUT
100
AcDbCircle
 10
552.9999864097657
 20
-92.66986951044179
 30
0.0
 40
2.5
  0
LINE
  5
2D5
330
38B
100
AcDbEntity
  8
1_OUTCUT
100
AcDbLine
 10
47.5
 20
-285.0
 30
0.0
 11
67.5
 21
-285.0
 31
0.0
  0
LINE
  5
2D6
330
38B
100
AcDbEntity
  8
1_OUTCUT
100
AcDbLine
 10
187.5
 20
-285.0
 30
0.0
 11
207.5
 21
-285.0
 31
0.0
  0
LWPOLYLINE
  5
2F7
330
38B
100
AcDbEntity
  8
04_INSIDE
100
AcDbPolyline
 90
        2
 70
   129
 43
0.0
 10
369.0010817015468
 20
-90.74999999999999
 42
0.9999999999999999
 10
373.0010817015468
 20
-90.74999999999999
 42
0.9999999999999999
  0
CIRCLE
  5
2F8
330
38B
100
AcDbEntity
  8
1_INCUT
100
AcDbCircle
 10
589.2280570715021
 20
-108.0439304635816
 30
0.0
 40
1.85
  0
LINE
  5
116
330
38B
100
AcDbEntity
  8
0_Outside
100
AcDbLine
 10
131.9999999999999
 20
20.25000000000003
 30
0.0
 11
118.9999999999999
 21
20.25000000000003
 31
0.0
  0
LINE
  5
2D7
330
38B
100
AcDbEntity
  8
1_OUTCUT
100
AcDbLine
 10
42.5
 20
-375.0
 30
0.0
 11
157.5
 21
-375.0
 31
0.0
  0
LINE
  5
2D8
330
38B
100
AcDbEntity
  8
1_OUTCUT
100
AcDbLine
 10
182.5
 20
-375.0
 30
0.0
 11
297.5
 21
-375.0
 31
0.0
  0
CIRCLE
  5
2F9
330
38B
100
AcDbEntity
  8
1_INCUT
100
AcDbCircle
 10
589.2280570695668
 20
-139.043930461646
 30
0.0
 40
1.85
  0
LINE
  5
117
330
38B
100
AcDbEntity
  8
0_Outside
100
AcDbLine
 10
117.9999999999999
 20
21.25000000000003
 30
0.0
 11
117.9999999999999
 21
24.25000000000003
 31
0.0
  0
LWPOLYLINE
  5
2FA
330
38B
100
AcDbEntity
  8
04_INSIDE
100
AcDbPolyline
 90
        2
 70
   129
 43
0.0
 10
429.0010817015468
 20
-70.74999999999999
 42
0.9999999999999999
 10
433.0010817015468
 20
-70.74999999999999
 42
0.9999999999999999
  0
CIRCLE
  5
2FB
330
38B
100
AcDbEntity
  8
1_INCUT
100
AcDbCircle
 10
558.2280570715054
 20
-139.0439304635848
 30
0.0
 40
1.85
  0
LINE
  5
118
330
38B
100
AcDbEntity
  8
0_Outside
100
AcDbLine
 10
118.9999999999999
 20
25.25000000000003
 30
0.0
 11
131.9999999999999
 21
25.25000000000003
 31
0.0
  0
LINE
  5
2D9
330
38B
100
AcDbEntity
  8
1_OUTCUT
100
AcDbLine
 10
87.5
 20
-360.0
 30
0.0
 11
157.5
 21
-360.0
 31
0.0
  0
LINE
  5
2DA
330
38B
100
AcDbEntity
  8
1_OUTCUT
100
AcDbLine
 10
227.5
 20
-360.0
 30
0.0
 11
297.5
 21
-360.0
 31
0.0
  0
CIRCLE
  5
2FC
330
38B
100
AcDbEntity
  8
1_INCUT
100
AcDbCircle
 10
558.2280570695667
 20
-108.043930461646
 30
0.0
 40
1.85
  0
LINE
  5
119
330
38B
100
AcDbEntity
  8
0_Outside
100
AcDbLine
 10
132.9999999999999
 20
24.25000000000003
 30
0.0
 11
132.9999999999999
 21
21.25000000000003
 31
0.0
  0
LINE
  5
2DB
330
38B
100
AcDbEntity
  8
1_OUTCUT
100
AcDbLine
 10
77.5
 20
-295.0
 30
0.0
 11
77.5
 21
-350.0
 31
0.0
  0
LINE
  5
2DC
330
38B
100
AcDbEntity
  8
1_OUTCUT
100
AcDbLine
 10
217.5
 20
-295.0
 30
0.0
 11
217.5
 21
-350.0
 31
0.0
  0
LWPOLYLINE
  5
2FD
330
38B
100
AcDbEntity
  8
04_INSIDE
100
AcDbPolyline
 90
        2
 70
   129
 43
0.0
 10
338.0010817015468
 20
-90.74999999999999
 42
0.9999999999999999
 10
342.0010817015468
 20
-90.74999999999999
 42
0.9999999999999999
  0
LINE
  5
2FE
330
38B
100
AcDbEntity
  8
Shape2DView
100
AcDbLine
 10
563.2280570695667
 20
-123.543920461646
 30
0.0
 11
562.7280570695667
 21
-123.543920461646
 31
0.0
  0
LINE
  5
11A
330
38B
100
AcDbEntity
  8
0_Outside
100
AcDbLine
 10
139.9999999999999
 20
28.50000000000003
 30
0.0
 11
142.9999999999999
 21
28.50000000000003
 31
0.0
  0
LINE
  5
2DD
330
38B
100
AcDbEntity
  8
1_OUTCUT
100
AcDbLine
 10
37.5
 20
-295.0
 30
0.0
 11
37.5
 21
-370.0
 31
0.0
  0
LINE
  5
2DE
330
38B
100
AcDbEntity
  8
1_OUTCUT
100
AcDbLine
 10
177.5
 20
-295.0
 30
0.0
 11
177.5
 21
-370.0
 31
0.0
  0
LWPOLYLINE
  5
2FF
330
38B
100
AcDbEntity
  8
in_cut
100
AcDbPolyline
 90
        2
 70
   129
 43
0.0
 10
499.9241063315914
 20
-162.7625593913647
 42
0.9999999999999999
 10
504.9241063315914
 20
-162.7625593913647
 42
0.9999999999999999
  0
LINE
  5
11B
330
38B
100
AcDbEntity
  8
0_Outside
100
AcDbLine
 10
143.9999999999999
 20
27.50000000000003
 30
0.0
 11
143.9999999999999
 21
18.50000000000003
 31
0.0
  0
CIRCLE
  5
2DF
330
38B
100
AcDbEntity
  8
1_INCUT
100
AcDbCircle
 10
57.5
 20
-345.0
 30
0.0
 40
2.25
  0
CIRCLE
  5
2E0
330
38B
100
AcDbEntity
  8
1_INCUT
100
AcDbCircle
 10
197.5
 20
-345.0
 30
0.0
 40
2.25
  0
LWPOLYLINE
  5
300
330
38B
100
AcDbEntity
  8
1_INCUT
100
AcDbPolyline
 90
        4
 70
   129
 43
0.0
 10
41.67194292849791
 20
-96.64874976767996
 10
41.67194292849791
 20
-131.6487497676799
 42
0.9999999999999999
 10
46.17194292849791
 20
-131.6487497676799
 10
46.17194292849791
 20
-96.64874976767996
 42
0.9999999999999999
  0
LWPOLYLINE
  5
301
330
38B
100
AcDbEntity
  8
1_INCUT
100
AcDbPolyline
 90
        4
 70
   129
 43
0.0
 10
132.407195844551
 20
-163.35125023232
 10
132.4071958445511
 20
-128.35125023232
 42
0.9999999999999999
 10
127.907195844551
 20
-128.35125023232
 10
127.907195844551
 20
-163.35125023232
 42
0.9999999999999999
  0
LWPOLYLINE
  5
302
330
38B
100
AcDbEntity
  8
04_INSIDE
100
AcDbPolyline
 90
        2
 70
   129
 43
0.0
 10
398.0010817015468
 20
-70.74999999999999
 42
0.9999999999999999
 10
402.0010817015468
 20
-70.74999999999999
 42
0.9999999999999999
  0
LWPOLYLINE
  5
303
330
38B
100
AcDbEntity
  8
in_cut
100
AcDbPolyline
 90
        2
 70
   129
 43
0.0
 10
567.9241063315914
 20
-162.7625593913647
 42
0.9999999999999999
 10
572.9241063315914
 20
-162.7625593913647
 42
0.9999999999999999
  0
LINE
  5
11C
330
38B
100
AcDbEntity
  8
0_Outside
100
AcDbLine
 10
142.9999999999999
 20
17.50000000000003
 30
0.0
 11
139.9999999999999
 21
17.50000000000003
 31
0.0
  0
CIRCLE
  5
2E1
330
38B
100
AcDbEntity
  8
1_INCUT
100
AcDbCircle
 10
57.5
 20
-365.0
 30
0.0
 40
2.25
  0
CIRCLE
  5
2E2
330
38B
100
AcDbEntity
  8
1_INCUT
100
AcDbCircle
 10
197.5
 20
-365.0
 30
0.0
 40
2.25
  0
LWPOLYLINE
  5
304
330
38B
100
AcDbEntity
  8
in_cut
100
AcDbPolyline
 90
        2
 70
   129
 43
0.0
 10
532.8691063315913
 20
-193.8875593913647
 42
0.9999999999999999
 10
539.9791063315913
 20
-193.8875593913647
 42
0.9999999999999999
  0
LINE
  5
11D
330
38B
100
AcDbEntity
  8
0_Outside
100
AcDbLine
 10
138.9999999999999
 20
18.50000000000003
 30
0.0
 11
138.9999999999999
 21
27.50000000000003
 31
0.0
  0
LINE
  5
2E3
330
38B
100
AcDbEntity
  8
1_OUTCUT
100
AcDbLine
 10
162.5
 20
-365.0
 30
0.0
 11
162.5
 21
-370.0
 31
0.0
  0
LINE
  5
2E4
330
38B
100
AcDbEntity
  8
1_OUTCUT
100
AcDbLine
 10
302.5
 20
-365.0
 30
0.0
 11
302.5
 21
-370.0
 31
0.0
  0
LWPOLYLINE
  5
305
330
38B
100
AcDbEntity
  8
04_INSIDE
100
AcDbPolyline
 90
        2
 70
   129
 43
0.0
 10
338.0010817015468
 20
-121.75
 42
0.9999999999999999
 10
342.0010817015468
 20
-121.75
 42
0.9999999999999999
  0
LWPOLYLINE
  5
306
330
38B
100
AcDbEntity
  8
in_cut
100
AcDbPolyline
 90
        4
 70
   129
 43
0.0
 10
504.9253706247353
 20
-175.7667435385717
 42
0.9999999999999999
 10
501.4253706247353
 20
-175.7667435385717
 10
501.4253706247353
 20
-181.7667435385717
 42
0.9999999999999999
 10
504.9253706247353
 20
-181.7667435385717
  0
ARC
  5
11E
330
38B
100
AcDbEntity
  8
0_Outside
100
AcDbCircle
 10
142.9999999999999
 20
27.50000000000003
 30
0.0
 40
1.0
100
AcDbArc
 50
0.0
 51
90.0
1001
QCAD
1000
reversed:1
  0
ARC
  5
2E5
330
38B
100
AcDbEntity
  8
1_OUTCUT
100
AcDbCircle
 10
67.5
 20
-295.0
 30
0.0
 40
10.0
100
AcDbArc
 50
0.0
 51
89.99999999999999
  0
ARC
  5
2E6
330
38B
100
AcDbEntity
  8
1_OUTCUT
100
AcDbCircle
 10
207.5
 20
-295.0
 30
0.0
 40
10.0
100
AcDbArc
 50
0.0
 51
89.99999999999999
  0
LWPOLYLINE
  5
307
330
38B
100
AcDbEntity
  8
in_cut
100
AcDbPolyline
 90
        2
 70
   129
 43
0.0
 10
544.4234058344176
 20
-111.0458085592376
 42
0.9999999999999999
 10
549.4234058344176
 20
-111.0458085592376
 42
0.9999999999999999
  0
ARC
  5
11F
330
38B
100
AcDbEntity
  8
0_Outside
100
AcDbCircle
 10
142.9999999999999
 20
18.50000000000003
 30
0.0
 40
1.0
100
AcDbArc
 50
270.0
 51
0.0
1001
QCAD
1000
reversed:1
  0
ARC
  5
2E7
330
38B
100
AcDbEntity
  8
1_OUTCUT
100
AcDbCircle
 10
47.5
 20
-295.0
 30
0.0
 40
10.0
100
AcDbArc
 50
90.0
 51
180.0
  0
ARC
  5
2E8
330
38B
100
AcDbEntity
  8
1_OUTCUT
100
AcDbCircle
 10
187.5
 20
-295.0
 30
0.0
 40
10.0
100
AcDbArc
 50
90.0
 51
180.0
  0
LWPOLYLINE
  5
308
330
38B
100
AcDbEntity
  8
04_INSIDE
100
AcDbPolyline
 90
        2
 70
   129
 43
0.0
 10
398.0010817015468
 20
-101.75
 42
0.9999999999999999
 10
402.0010817015468
 20
-101.75
 42
0.9999999999999999
  0
LWPOLYLINE
  5
309
330
38B
100
AcDbEntity
  8
in_cut
100
AcDbPolyline
 90
        4
 70
   129
 43
0.0
 10
512.9253706247353
 20
-175.7667435385717
 42
0.9999999999999999
 10
509.4253706247353
 20
-175.7667435385717
 10
509.4253706247353
 20
-181.7667435385717
 42
0.9999999999999999
 10
512.9253706247353
 20
-181.7667435385717
  0
ARC
  5
120
330
38B
100
AcDbEntity
  8
0_Outside
100
AcDbCircle
 10
139.9999999999999
 20
18.50000000000003
 30
0.0
 40
1.0
100
AcDbArc
 50
180.0
 51
270.0
1001
QCAD
1000
reversed:1
  0
ARC
  5
2E9
330
38B
100
AcDbEntity
  8
1_OUTCUT
100
AcDbCircle
 10
87.5
 20
-350.0
 30
0.0
 40
10.0
100
AcDbArc
 50
180.0
 51
270.0
  0
ARC
  5
2EA
330
38B
100
AcDbEntity
  8
1_OUTCUT
100
AcDbCircle
 10
227.5
 20
-350.0
 30
0.0
 40
10.0
100
AcDbArc
 50
180.0
 51
270.0
  0
LWPOLYLINE
  5
30A
330
38B
100
AcDbEntity
  8
in_cut
100
AcDbPolyline
 90
        2
 70
   129
 43
0.0
 10
545.4234058344175
 20
-137.0458085592376
 42
0.9999999999999999
 10
550.4234058344175
 20
-137.0458085592376
 42
0.9999999999999999
  0
ARC
  5
121
330
38B
100
AcDbEntity
  8
0_Outside
100
AcDbCircle
 10
139.9999999999999
 20
27.50000000000003
 30
0.0
 40
1.0
100
AcDbArc
 50
90.0
 51
180.0
1001
QCAD
1000
reversed:1
  0
ARC
  5
2EB
330
38B
100
AcDbEntity
  8
1_OUTCUT
100
AcDbCircle
 10
157.5
 20
-365.0
 30
0.0
 40
5.0
100
AcDbArc
 50
0.0
 51
90.0
1001
QCAD
1000
reversed:1
  0
ARC
  5
2EC
330
38B
100
AcDbEntity
  8
1_OUTCUT
100
AcDbCircle
 10
297.5
 20
-365.0
 30
0.0
 40
5.0
100
AcDbArc
 50
0.0
 51
90.0
1001
QCAD
1000
reversed:1
  0
LWPOLYLINE
  5
30B
330
38B
100
AcDbEntity
  8
04_INSIDE
100
AcDbPolyline
 90
        2
 70
   129
 43
0.0
 10
369.0010817015468
 20
-121.75
 42
0.9999999999999999
 10
373.0010817015468
 20
-121.75
 42
0.9999999999999999
  0
LWPOLYLINE
  5
30C
330
38B
100
AcDbEntity
  8
in_cut
100
AcDbPolyline
 90
        2
 70
   129
 43
0.0
 10
544.4234058344175
 20
-206.2751304895582
 42
0.9999999999999999
 10
549.4234058344175
 20
-206.2751304895582
 42
0.9999999999999999
  0
ARC
  5
122
330
38B
100
AcDbEntity
  8
0_Outside
100
AcDbCircle
 10
118.9999999999999
 20
21.25000000000003
 30
0.0
 40
1.0
100
AcDbArc
 50
180.0
 51
270.0
1001
QCAD
1000
reversed:1
  0
ARC
  5
2ED
330
38B
100
AcDbEntity
  8
1_OUTCUT
100
AcDbCircle
 10
157.5
 20
-370.0
 30
0.0
 40
5.0
100
AcDbArc
 50
270.0
 51
0.0
1001
QCAD
1000
reversed:1
  0
ARC
  5
2EE
330
38B
100
AcDbEntity
  8
1_OUTCUT
100
AcDbCircle
 10
297.5
 20
-370.0
 30
0.0
 40
5.0
100
AcDbArc
 50
270.0
 51
0.0
1001
QCAD
1000
reversed:1
  0
LWPOLYLINE
  5
30D
330
38B
100
AcDbEntity
  8
in_cut
100
AcDbPolyline
 90
        2
 70
   129
 43
0.0
 10
512.2434058344176
 20
-111.0458085592376
 42
0.9999999999999999
 10
519.3534058344175
 20
-111.0458085592376
 42
0.9999999999999999
  0
ARC
  5
123
330
38B
100
AcDbEntity
  8
0_Outside
100
AcDbCircle
 10
118.9999999999999
 20
24.25000000000003
 30
0.0
 40
1.0
100
AcDbArc
 50
90.0
 51
180.0
1001
QCAD
1000
reversed:1
  0
ARC
  5
2EF
330
38B
100
AcDbEntity
  8
1_OUTCUT
100
AcDbCircle
 10
42.5
 20
-370.0
 30
0.0
 40
5.0
100
AcDbArc
 50
180.0
 51
270.0
1001
QCAD
1000
reversed:1
  0
ARC
  5
2F0
330
38B
100
AcDbEntity
  8
1_OUTCUT
100
AcDbCircle
 10
182.5
 20
-370.0
 30
0.0
 40
5.0
100
AcDbArc
 50
180.0
 51
270.0
1001
QCAD
1000
reversed:1
  0
LWPOLYLINE
  5
30E
330
38B
100
AcDbEntity
  8
04_INSIDE
100
AcDbPolyline
 90
        2
 70
   129
 43
0.0
 10
429.0010817015468
 20
-101.75
 42
0.9999999999999999
 10
433.0010817015468
 20
-101.75
 42
0.9999999999999999
  0
LWPOLYLINE
  5
30F
330
38B
100
AcDbEntity
  8
in_cut
100
AcDbPolyline
 90
        2
 70
   129
 43
0.0
 10
512.2434058344176
 20
-206.2751304895582
 42
0.9999999999999999
 10
519.3534058344175
 20
-206.2751304895582
 42
0.9999999999999999
  0
ARC
  5
124
330
38B
100
AcDbEntity
  8
0_Outside
100
AcDbCircle
 10
131.9999999999999
 20
24.25000000000003
 30
0.0
 40
1.0
100
AcDbArc
 50
0.0
 51
90.0
1001
QCAD
1000
reversed:1
  0
LWPOLYLINE
  5
310
330
38B
100
AcDbEntity
  8
in_cut
100
AcDbPolyline
 90
        4
 70
   129
 43
0.0
 10
551.9253706247353
 20
-181.7667435385717
 42
0.9999999999999999
 10
555.4253706247353
 20
-181.7667435385717
 10
555.4253706247353
 20
-175.7667435385717
 42
0.9999999999999999
 10
551.9253706247353
 20
-175.7667435385717
  0
ARC
  5
125
330
38B
100
AcDbEntity
  8
0_Outside
100
AcDbCircle
 10
131.9999999999999
 20
21.25000000000003
 30
0.0
 40
1.0
100
AcDbArc
 50
270.0
 51
0.0
1001
QCAD
1000
reversed:1
  0
LWPOLYLINE
  5
311
330
38B
100
AcDbEntity
  8
04_INSIDE
100
AcDbPolyline
 90
        2
 70
   129
 43
0.0
 10
323.0010817015468
 20
-137.25
 42
1.0
 10
328.0010817015468
 20
-137.25
 42
1.0
  0
LWPOLYLINE
  5
312
330
38B
100
AcDbEntity
  8
in_cut
100
AcDbPolyline
 90
        4
 70
   129
 43
0.0
 10
559.9253706247353
 20
-181.7667435385717
 42
0.9999999999999999
 10
563.4253706247353
 20
-181.7667435385717
 10
563.4253706247353
 20
-175.7667435385717
 42
0.9999999999999999
 10
559.9253706247353
 20
-175.7667435385717
  0
ARC
  5
313
330
38B
100
AcDbEntity
  8
1_OUTCUT
100
AcDbCircle
 10
515.7984058344174
 20
-111.0458085592376
 30
0.0
 40
8.554999999999978
100
AcDbArc
 50
90.0
 51
180.0
  0
LWPOLYLINE
  5
314
330
38B
100
AcDbEntity
  8
04_INSIDE
100
AcDbPolyline
 90
        2
 70
   129
 43
0.0
 10
383.0010817015468
 20
-137.25
 42
1.0
 10
388.0010817015468
 20
-137.25
 42
1.0
  0
ARC
  5
315
330
38B
100
AcDbEntity
  8
1_OUTCUT
100
AcDbCircle
 10
552.9999864097657
 20
-72.66986951044179
 30
0.0
 40
7.5
100
AcDbArc
 50
0.0
 51
180.0
  0
ARC
  5
316
330
38B
100
AcDbEntity
  8
1_OUTCUT
100
AcDbCircle
 10
570.4241063315914
 20
-162.7625593913647
 30
0.0
 40
7.5
100
AcDbArc
 50
292.0624811187356
 51
0.0
  0
LWPOLYLINE
  5
317
330
38B
100
AcDbEntity
  8
04_INSIDE
100
AcDbPolyline
 90
        2
 70
   129
 43
0.0
 10
455.0010817015468
 20
-137.25
 42
1.0
 10
460.0010817015468
 20
-137.25
 42
1.0
  0
ARC
  5
318
330
38B
100
AcDbEntity
  8
1_OUTCUT
100
AcDbCircle
 10
589.2280570695668
 20
-139.043930461646
 30
0.0
 40
6.85
100
AcDbArc
 50
253.6910271014492
 51
0.0
  0
ARC
  5
319
330
38B
100
AcDbEntity
  8
1_OUTCUT
100
AcDbCircle
 10
515.7984058344174
 20
-206.2751304895582
 30
0.0
 40
8.554999999999978
100
AcDbArc
 50
202.4321199067647
 51
269.9999999999996
  0
LWPOLYLINE
  5
31A
330
38B
100
AcDbEntity
  8
04_INSIDE
100
AcDbPolyline
 90
        2
 70
   129
 43
0.0
 10
322.0010817015468
 20
-196.25
 42
1.0
 10
329.0010817015468
 20
-196.25
 42
1.0
  0
ARC
  5
31B
330
38B
100
AcDbEntity
  8
1_OUTCUT
100
AcDbCircle
 10
502.4241063315914
 20
-162.7625593913647
 30
0.0
 40
7.5
100
AcDbArc
 50
90.82829891847535
 51
182.6179984608018
  0
ARC
  5
31C
330
38B
100
AcDbEntity
  8
1_OUTCUT
100
AcDbCircle
 10
589.2280570715021
 20
-108.0439304635816
 30
0.0
 40
6.85
100
AcDbArc
 50
0.0
 51
90.02809187898272
  0
LINE
  5
31D
330
38B
100
AcDbEntity
  8
1_OUTCUT
100
AcDbLine
 10
560.4999864097656
 20
-72.66986951044179
 30
0.0
 11
560.4999864097656
 21
-96.20556281314752
 31
0.0
  0
LINE
  5
31E
330
38B
100
AcDbEntity
  8
1_OUTCUT
100
AcDbLine
 10
63.73213817116746
 20
-153.6487497676799
 30
0.0
 11
98.82704054983128
 21
-153.6487497676799
 31
0.0
  0
LINE
  5
31F
330
38B
100
AcDbEntity
  8
1_OUTCUT
100
AcDbLine
 10
110.3470006018815
 20
-106.35125023232
 30
0.0
 11
75.25209822321767
 21
-106.35125023232
 31
0.0
  0
LWPOLYLINE
  5
320
330
38B
100
AcDbEntity
  8
04_INSIDE
100
AcDbPolyline
 90
        2
 70
   129
 43
0.0
 10
454.0010817015468
 20
-196.25
 42
1.0
 10
461.0010817015468
 20
-196.25
 42
1.0
  0
LINE
  5
321
330
38B
100
AcDbEntity
  8
1_OUTCUT
100
AcDbLine
 10
565.5024378885739
 20
-101.2055622121726
 30
0.0
 11
589.2246985455348
 21
-101.1939312869172
 31
0.0
  0
LINE
  5
322
330
38B
100
AcDbEntity
  8
1_OUTCUT
100
AcDbLine
 10
48.92194292849791
 20
-168.6487497676799
 30
0.0
 11
98.82704054983128
 21
-168.6487497676799
 31
0.0
  0
LINE
  5
323
330
38B
100
AcDbEntity
  8
1_OUTCUT
100
AcDbLine
 10
125.1571958445511
 20
-91.35125023232001
 30
0.0
 11
75.2520982232177
 21
-91.35125023231996
 31
0.0
  0
LINE
  5
324
330
38B
100
AcDbEntity
  8
1_OUTCUT
100
AcDbLine
 10
596.0780570715021
 20
-108.0439304640092
 30
0.0
 11
596.0780570695669
 21
-139.0439304620737
 31
0.0
  0
LWPOLYLINE
  5
126
330
38B
100
AcDbEntity
  8
0_Outside
100
AcDbPolyline
 90
        2
 70
   129
 43
0.0
 10
132.4999999999999
 20
103.75
 42
1.0
 10
137.4999999999999
 20
103.75
 42
1.0
  0
LINE
  5
325
330
38B
100
AcDbEntity
  8
1_OUTCUT
100
AcDbLine
 10
28.92194292849786
 20
-89.14874976767996
 30
0.0
 11
58.73213817116456
 21
-89.14874976767996
 31
0.0
  0
LINE
  5
326
330
38B
100
AcDbEntity
  8
1_OUTCUT
100
AcDbLine
 10
145.1571958445511
 20
-170.85125023232
 30
0.0
 11
115.3470006018844
 21
-170.85125023232
 31
0.0
  0
LWPOLYLINE
  5
327
330
38B
100
AcDbEntity
  8
04_INSIDE
100
AcDbPolyline
 90
        2
 70
   129
 43
0.0
 10
413.0010817015468
 20
-126.25
 42
1.0
 10
418.0010817015468
 20
-126.25
 42
1.0
  0
LINE
  5
328
330
38B
100
AcDbEntity
  8
1_OUTCUT
100
AcDbLine
 10
580.9412067270658
 20
-149.7794142141832
 30
0.0
 11
577.862859362052
 21
-163.7190913311412
 31
0.0
  0
LINE
  5
329
330
38B
100
AcDbEntity
  8
1_OUTCUT
100
AcDbLine
 10
63.73213817116459
 20
-94.14874976767996
 30
0.0
 11
63.73213817116459
 21
-147.8986124590339
 31
0.0
  0
LINE
  5
32A
330
38B
100
AcDbEntity
  8
1_OUTCUT
100
AcDbLine
 10
110.3470006018844
 20
-165.85125023232
 30
0.0
 11
110.3470006018844
 21
-112.1013875409661
 31
0.0
  0
LINE
  5
32B
330
38B
100
AcDbEntity
  8
1_OUTCUT
100
AcDbLine
 10
566.4715884063394
 20
-199.2049849850765
 30
0.0
 11
551.3783572729612
 21
-211.5689854762528
 31
0.0
  0
LWPOLYLINE
  5
32C
330
38B
100
AcDbEntity
  8
04_INSIDE
100
AcDbPolyline
 90
        2
 70
   129
 43
0.0
 10
433.0010817015468
 20
-126.25
 42
1.0
 10
438.0010817015468
 20
-126.25
 42
1.0
  0
LINE
  5
32D
330
38B
100
AcDbEntity
  8
1_OUTCUT
100
AcDbLine
 10
545.380138653097
 20
-213.8274404293588
 30
0.0
 11
515.7984058344174
 21
-214.8301304895582
 31
0.0
  0
LINE
  5
32E
330
38B
100
AcDbEntity
  8
1_OUTCUT
100
AcDbLine
 10
23.92194292849791
 20
-143.6487497676799
 30
0.0
 11
23.92194292849791
 21
-94.14874976767996
 31
0.0
  0
LINE
  5
32F
330
38B
100
AcDbEntity
  8
1_OUTCUT
100
AcDbLine
 10
150.157195844551
 20
-116.35125023232
 30
0.0
 11
150.157195844551
 21
-165.85125023232
 31
0.0
  0
LINE
  5
330
330
38B
100
AcDbEntity
  8
1_OUTCUT
100
AcDbLine
 10
496.486590967663
 20
-191.5542375734614
 30
0.0
 11
507.8907433415194
 21
-209.5396210927629
 31
0.0
  0
LINE
  5
331
330
38B
100
AcDbEntity
  8
1_OUTCUT
100
AcDbLine
 10
103.8270405498313
 20
-158.64874976768
 30
0.0
 11
103.8270405498313
 21
-163.6487497676799
 31
0.0
  0
LINE
  5
332
330
38B
100
AcDbEntity
  8
1_OUTCUT
100
AcDbLine
 10
70.25209822321776
 20
-101.35125023232
 30
0.0
 11
70.25209822321773
 21
-96.35125023232001
 31
0.0
  0
LINE
  5
333
330
38B
100
AcDbEntity
  8
1_OUTCUT
100
AcDbLine
 10
507.2434058344176
 20
-111.0458085592376
 30
0.0
 11
507.2434058344176
 21
-150.2638655663956
 31
0.0
  0
ARC
  5
334
330
38B
100
AcDbEntity
  8
1_OUTCUT
100
AcDbCircle
 10
98.82704054983128
 20
-158.64874976768
 30
0.0
 40
5.0
100
AcDbArc
 50
0.0
 51
90.0
1001
QCAD
1000
reversed:1
  0
ARC
  5
335
330
38B
100
AcDbEntity
  8
1_OUTCUT
100
AcDbCircle
 10
75.2520982232177
 20
-101.35125023232
 30
0.0
 40
5.0
100
AcDbArc
 50
180.0
 51
270.0
1001
QCAD
1000
reversed:1
  0
LINE
  5
336
330
38B
100
AcDbEntity
  8
1_OUTCUT
100
AcDbLine
 10
515.7984058344174
 20
-102.4908085592377
 30
0.0
 11
540.6531202539163
 21
-101.7292317034225
 31
0.0
  0
ARC
  5
337
330
38B
100
AcDbEntity
  8
1_OUTCUT
100
AcDbCircle
 10
98.82704054983128
 20
-163.6487497676799
 30
0.0
 40
5.0
100
AcDbArc
 50
270.0
 51
0.0
1001
QCAD
1000
reversed:1
  0
ARC
  5
338
330
38B
100
AcDbEntity
  8
1_OUTCUT
100
AcDbCircle
 10
75.25209822321767
 20
-96.35125023232001
 30
0.0
 40
5.0
100
AcDbArc
 50
90.0
 51
180.0
1001
QCAD
1000
reversed:1
  0
LINE
  5
339
330
38B
100
AcDbEntity
  8
1_OUTCUT
100
AcDbLine
 10
545.4999864097656
 20
-72.66986951044179
 30
0.0
 11
545.4999864097656
 21
-96.73157725100428
 31
0.0
  0
ARC
  5
33A
330
38B
100
AcDbEntity
  8
1_OUTCUT
100
AcDbCircle
 10
48.92194292849791
 20
-143.6487497676799
 30
0.0
 40
25.0
100
AcDbArc
 50
180.0
 51
270.0
  0
ARC
  5
33B
330
38B
100
AcDbEntity
  8
1_OUTCUT
100
AcDbCircle
 10
125.1571958445511
 20
-116.35125023232
 30
0.0
 40
25.0
100
AcDbArc
 50
0.0
 51
90.0
  0
ARC
  5
33C
330
38B
100
AcDbEntity
  8
1_OUTCUT
100
AcDbCircle
 10
540.4999864097657
 20
-96.73157725100428
 30
0.0
 40
5.0
100
AcDbArc
 50
271.7550590409718
 51
0.0
  0
ARC
  5
33D
330
38B
100
AcDbEntity
  8
1_OUTCUT
100
AcDbCircle
 10
28.92194292849786
 20
-94.14874976767996
 30
0.0
 40
5.0
100
AcDbArc
 50
90.0
 51
180.0
  0
ARC
  5
33E
330
38B
100
AcDbEntity
  8
1_OUTCUT
100
AcDbCircle
 10
145.1571958445511
 20
-165.85125023232
 30
0.0
 40
5.0
100
AcDbArc
 50
270.0
 51
0.0
  0
ARC
  5
33F
330
38B
100
AcDbEntity
  8
1_OUTCUT
100
AcDbCircle
 10
565.4999864097656
 20
-96.20556281314752
 30
0.0
 40
5.0
100
AcDbArc
 50
180.0
 51
270.0280918789827
  0
ARC
  5
340
330
38B
100
AcDbEntity
  8
1_OUTCUT
100
AcDbCircle
 10
58.73213817116456
 20
-94.14874976767996
 30
0.0
 40
5.0
100
AcDbArc
 50
0.0
 51
90.0
1001
QCAD
1000
reversed:1
  0
ARC
  5
341
330
38B
100
AcDbEntity
  8
1_OUTCUT
100
AcDbCircle
 10
115.3470006018844
 20
-165.85125023232
 30
0.0
 40
5.0
100
AcDbArc
 50
180.0
 51
270.0
1001
QCAD
1000
reversed:1
  0
ARC
  5
342
330
38B
100
AcDbEntity
  8
1_OUTCUT
100
AcDbCircle
 10
585.9003754140394
 20
-150.4171021740343
 30
0.0
 40
5.0
100
AcDbArc
 50
73.69102710144908
 51
172.6726777583998
  0
ARC
  5
343
330
38B
100
AcDbEntity
  8
1_OUTCUT
100
AcDbCircle
 10
575.1193246518536
 20
-174.3472443212656
 30
0.0
 40
5.0
100
AcDbArc
 50
112.0624811187354
 51
175.5189496395614
  0
ARC
  5
344
330
38B
100
AcDbEntity
  8
1_OUTCUT
100
AcDbCircle
 10
502.2434058344176
 20
-150.2638655663956
 30
0.0
 40
5.0
100
AcDbArc
 50
270.8282989184754
 51
0.0
  0
ARC
  5
345
330
38B
100
AcDbEntity
  8
1_OUTCUT
100
AcDbCircle
 10
63.72593583829325
 20
-150.773681113357
 30
0.0
 40
2.87507534440465
100
AcDbArc
 50
89.87639705756145
 51
180.0
  0
ARC
  5
346
330
38B
100
AcDbEntity
  8
1_OUTCUT
100
AcDbCircle
 10
63.72593583829325
 20
-150.773681113357
 30
0.0
 40
2.87507534440465
100
AcDbArc
 50
180.0
 51
270.1236029424958
  0
ARC
  5
347
330
38B
100
AcDbEntity
  8
1_OUTCUT
100
AcDbCircle
 10
110.3532029347557
 20
-109.226318886643
 30
0.0
 40
2.87507534440465
100
AcDbArc
 50
269.8763970575615
 51
0.0
  0
ARC
  5
348
330
38B
100
AcDbEntity
  8
1_OUTCUT
100
AcDbCircle
 10
110.3532029347557
 20
-109.226318886643
 30
0.0
 40
2.87507534440465
100
AcDbArc
 50
0.0
 51
90.1236029424958
  0
LINE
  5
349
330
38B
100
AcDbEntity
  8
1_OUTCUT
100
AcDbLine
 10
570.1346085105123
 20
-191.4691795454419
 30
0.0
 11
570.1346085105123
 21
-173.9565974343574
 31
0.0
  0
LINE
  5
34A
330
38B
100
AcDbEntity
  8
1_OUTCUT
100
AcDbLine
 10
494.9319343027081
 20
-186.1992234788759
 30
0.0
 11
494.9319343027081
 21
-163.1051353531882
 31
0.0
  0
ARC
  5
34B
330
38B
100
AcDbEntity
  8
1_OUTCUT
100
AcDbCircle
 10
504.9319343027081
 20
-186.1992234788758
 30
0.0
 40
10.0
100
AcDbArc
 50
180.0
 51
212.377922158298
  0
ARC
  5
34C
330
38B
100
AcDbEntity
  8
1_OUTCUT
100
AcDbCircle
 10
545.0413773771342
 20
-203.8331800366179
 30
0.0
 40
10.0
100
AcDbArc
 50
271.9413305675611
 51
309.3234835455642
  0
ARC
  5
34D
330
38B
100
AcDbEntity
  8
1_OUTCUT
100
AcDbCircle
 10
560.1346085105123
 20
-191.4691795454418
 30
0.0
 40
10.0
100
AcDbArc
 50
309.3234835455642
 51
0.0
1001
QCAD
1000
reversed:1
  0
LWPOLYLINE
  5
34E
330
38B
100
AcDbEntity
  8
out_cut
100
AcDbPolyline
 90
        8
 70
   129
 43
0.0
 10
256.953355543406
 20
-135.0
 10
202.5395693865244
 20
-135.0
 10
178.5395693865244
 20
-138.0
 42
0.9999999999999999
 10
178.5395693865244
 20
-152.0
 10
202.5395693865244
 20
-155.0
 10
256.953355543406
 20
-155.0
 42
0.414213562373095
 10
260.953355543406
 20
-151.0
 10
260.953355543406
 20
-139.0
 42
0.414213562373095
  0
LWPOLYLINE
  5
34F
330
38B
100
AcDbEntity
  8
out_cut
100
AcDbPolyline
 90
        8
 70
   129
 43
0.0
 10
256.953355543406
 20
-105.0
 10
202.5395693865244
 20
-105.0
 10
178.5395693865244
 20
-108.0
 42
0.9999999999999999
 10
178.5395693865244
 20
-122.0
 10
202.5395693865244
 20
-125.0
 10
256.953355543406
 20
-125.0
 42
0.414213562373095
 10
260.953355543406
 20
-121.0
 10
260.953355543406
 20
-109.0
 42
0.414213562373095
  0
LWPOLYLINE
  5
127
330
38B
100
AcDbEntity
  8
0_Outside
100
AcDbPolyline
 90
        2
 70
   129
 43
0.0
 10
132.4999999999999
 20
49.75000000000003
 42
1.0
 10
137.4999999999999
 20
49.75000000000003
 42
1.0
  0
LWPOLYLINE
  5
350
330
38B
100
AcDbEntity
  8
drill
100
AcDbPolyline
 90
        2
 70
   129
 43
0.0
 10
176.5395693865244
 20
-145.0
 42
0.9999999999999999
 10
180.5395693865244
 20
-145.0
 42
0.9999999999999999
  0
LWPOLYLINE
  5
351
330
38B
100
AcDbEntity
  8
drill
100
AcDbPolyline
 90
        2
 70
   129
 43
0.0
 10
176.5395693865244
 20
-115.0
 42
0.9999999999999999
 10
180.5395693865244
 20
-115.0
 42
0.9999999999999999
  0
LWPOLYLINE
  5
352
330
38B
100
AcDbEntity
  8
04_INSIDE
100
AcDbPolyline
 90
        2
 70
   129
 43
0.0
 10
413.0010817015468
 20
-206.25
 42
1.0
 10
418.0010817015468
 20
-206.25
 42
1.0
  0
LWPOLYLINE
  5
353
330
38B
100
AcDbEntity
  8
pocket
100
AcDbPolyline
 90
        4
 70
   129
 43
0.0
 10
194.5395693865244
 20
-141.5
 10
262.5395693865246
 20
-141.5
 10
262.5395693865246
 20
-134.5
 10
194.5395693865244
 20
-134.5
  0
LWPOLYLINE
  5
354
330
38B
100
AcDbEntity
  8
pocket
100
AcDbPolyline
 90
        4
 70
   129
 43
0.0
 10
194.5395693865244
 20
-111.5
 10
262.5395693865246
 20
-111.5
 10
262.5395693865246
 20
-104.5
 10
194.5395693865244
 20
-104.5
  0
LWPOLYLINE
  5
355
330
38B
100
AcDbEntity
  8
04_INSIDE
100
AcDbPolyline
 90
        2
 70
   129
 43
0.0
 10
433.0010817015468
 20
-206.25
 42
1.0
 10
438.0010817015468
 20
-206.25
 42
1.0
  0
LWPOLYLINE
  5
356
330
38B
100
AcDbEntity
  8
pocket
100
AcDbPolyline
 90
        4
 70
   129
 43
0.0
 10
194.5395693865244
 20
-148.5
 10
262.5395693865246
 20
-148.5
 10
262.5395693865245
 20
-155.5
 10
194.5395693865244
 20
-155.5
  0
LWPOLYLINE
  5
357
330
38B
100
AcDbEntity
  8
pocket
100
AcDbPolyline
 90
        4
 70
   129
 43
0.0
 10
194.5395693865244
 20
-118.5
 10
262.5395693865246
 20
-118.5
 10
262.5395693865245
 20
-125.5
 10
194.5395693865244
 20
-125.5
  0
LWPOLYLINE
  5
358
330
38B
100
AcDbEntity
  8
in_cut
100
AcDbPolyline
 90
        2
 70
   129
 43
0.0
 10
225.7895693865244
 20
-145.0
 42
0.9999999999999999
 10
231.2895693865244
 20
-145.0
 42
0.9999999999999999
  0
LWPOLYLINE
  5
359
330
38B
100
AcDbEntity
  8
in_cut
100
AcDbPolyline
 90
        2
 70
   129
 43
0.0
 10
225.7895693865244
 20
-115.0
 42
0.9999999999999999
 10
231.2895693865244
 20
-115.0
 42
0.9999999999999999
  0
LWPOLYLINE
  5
35A
330
38B
100
AcDbEntity
  8
05_OUTSIDE
100
AcDbPolyline
 90
       42
 70
   128
 43
0.0
 10
473.0010817015468
 20
-76.24999999999999
 42
-0.414213562373095
 10
465.5010817015468
 20
-83.74999999999999
 10
450.5010817015468
 20
-83.74999999999999
 42
0.414213562373095
 10
445.5010817015468
 20
-88.74999999999999
 10
445.5010817015468
 20
-113.1598300562506
 42
0.284079043840411
 10
448.265013724047
 20
-117.6319660112501
 10
470.6053751782061
 20
-127.9967149120794
 42
-0.2919998581021429
 10
473.5010817015468
 20
-132.5323459557257
 10
473.5010817015468
 20
-204.1153389004884
 42
0.3448814639906156
 10
477.3010817015468
 20
-208.969203340293
 42
-0.3448814639906136
 10
483.0010817015468
 20
-216.25
 42
-0.8128360659240215
 10
468.627218159113
 20
-219.25
 42
0.2982166266986055
 10
464.0446424641572
 20
-216.25
 10
396.6814215890457
 20
-216.25
 42
-0.1164338214658533
 10
394.445353611546
 20
-215.7221359549996
 10
386.5568097915475
 20
-211.7778640450004
 42
0.1164338214658532
 10
384.3207418140478
 20
-211.25
 10
318.0010817015468
 20
-211.25
 42
0.4142135623730954
 10
313.0010817015468
 20
-216.25
 42
-0.9999999999999999
 10
298.0010817015468
 20
-216.25
 42
-0.2982166266986063
 10
302.5010817015468
 20
-209.3761364575662
 42
0.2982166266986068
 10
305.5010817015468
 20
-204.7935607626104
 10
305.5010817015468
 20
-129.3401699437495
 42
-0.2840790438404109
 10
308.265013724047
 20
-124.8680339887498
 10
322.7371496790466
 20
-117.6319660112501
 42
0.2840790438404099
 10
325.5010817015468
 20
-113.1598300562506
 10
325.5010817015468
 20
-88.74999999999999
 42
0.414213562373095
 10
320.5010817015468
 20
-83.74999999999999
 10
315.5010817015468
 20
-83.74999999999999
 42
-0.4142135623730961
 10
308.0010817015468
 20
-76.24999999999999
 42
-0.8128360659240192
 10
322.3749452439805
 20
-73.24999999999999
 42
0.2982166266986078
 10
326.9575209389365
 20
-76.24999999999999
 10
373.4300138896813
 20
-76.24999999999999
 42
0.1989123673796564
 10
376.9655477956139
 20
-74.78553390593275
 10
394.0366156074796
 20
-57.71446609406716
 42
-0.1989123673796626
 10
397.5721495134123
 20
-56.24999999999999
 10
433.4300138896813
 20
-56.24999999999999
 42
-0.1989123673796558
 10
436.965547795614
 20
-57.71446609406728
 10
446.5366156074796
 20
-67.28553390593275
 42
0.1989123673796589
 10
450.0721495134123
 20
-68.7500000000001
 10
465.5010817015468
 20
-68.74999999999999
 42
-0.9999999999999999
 10
465.5010817015468
 20
-83.74999999999999
  0
LWPOLYLINE
  5
35B
330
38B
100
AcDbEntity
  8
in_cut
100
AcDbPolyline
 90
        2
 70
   129
 43
0.0
 10
245.7895693865244
 20
-145.0
 42
0.9999999999999999
 10
251.2895693865244
 20
-145.0
 42
0.9999999999999999
  0
LWPOLYLINE
  5
35C
330
38B
100
AcDbEntity
  8
in_cut
100
AcDbPolyline
 90
        2
 70
   129
 43
0.0
 10
245.7895693865244
 20
-115.0
 42
0.9999999999999999
 10
251.2895693865244
 20
-115.0
 42
0.9999999999999999
  0
LWPOLYLINE
  5
35D
330
38B
100
AcDbEntity
  8
04_INSIDE
100
AcDbPolyline
 90
        2
 70
   129
 43
0.0
 10
423.0667651637854
 20
-173.6128203015724
 42
1.0
 10
428.0667651637854
 20
-173.6128203015724
 42
1.0
  0
LWPOLYLINE
  5
35E
330
38B
100
AcDbEntity
  8
04_INSIDE
100
AcDbPolyline
 90
        2
 70
   129
 43
0.0
 10
353.0667651637854
 20
-173.6128203015724
 42
1.0
 10
358.0667651637854
 20
-173.6128203015724
 42
1.0
  0
LWPOLYLINE
  5
35F
330
38B
100
AcDbEntity
  8
05_OUTSIDE
100
AcDbPolyline
 90
        6
 70
   129
 43
0.0
 10
429.0010817015467
 20
-153.3473217087477
 10
422.0010817015467
 20
-153.3473217087477
 42
0.414213562373095
 10
419.0010817015467
 20
-156.3473217087477
 10
419.0010817015473
 20
-173.6128203015724
 42
0.8522858445661664
 10
432.0010817015469
 20
-173.6128203015725
 10
432.0010817015467
 20
-156.3473217087477
 42
0.414213562373095
  0
LWPOLYLINE
  5
360
330
38B
100
AcDbEntity
  8
05_OUTSIDE
100
AcDbPolyline
 90
        6
 70
   129
 43
0.0
 10
359.0010817015467
 20
-153.3473217087477
 10
352.0010817015467
 20
-153.3473217087477
 42
0.414213562373095
 10
349.0010817015467
 20
-156.3473217087477
 10
349.0010817015473
 20
-173.6128203015724
 42
0.8522858445661669
 10
362.0010817015469
 20
-173.6128203015725
 10
362.0010817015467
 20
-156.3473217087477
 42
0.414213562373095
  0
LWPOLYLINE
  5
361
330
38B
100
AcDbEntity
  8
04_INSIDE
100
AcDbPolyline
 90
        4
 70
   129
 43
0.0
 10
428.5010817015467
 20
-159.8300710051601
 42
0.9999999999999999
 10
428.5010817015467
 20
-156.63007100516
 10
422.5010817015467
 20
-156.63007100516
 42
0.9999999999999999
 10
422.5010817015467
 20
-159.8300710051601
  0
LWPOLYLINE
  5
362
330
38B
100
AcDbEntity
  8
04_INSIDE
100
AcDbPolyline
 90
        4
 70
   129
 43
0.0
 10
428.5010817015467
 20
-165.8300710051601
 42
0.9999999999999999
 10
428.5010817015467
 20
-162.63007100516
 10
422.5010817015467
 20
-162.63007100516
 42
0.9999999999999999
 10
422.5010817015467
 20
-165.8300710051601
  0
LWPOLYLINE
  5
363
330
38B
100
AcDbEntity
  8
04_INSIDE
100
AcDbPolyline
 90
        4
 70
   129
 43
0.0
 10
358.5010817015467
 20
-159.8300710051601
 42
0.9999999999999999
 10
358.5010817015467
 20
-156.63007100516
 10
352.5010817015467
 20
-156.63007100516
 42
0.9999999999999999
 10
352.5010817015467
 20
-159.8300710051601
  0
LINE
  5
128
330
38B
100
AcDbEntity
  8
0_Outside
100
AcDbLine
 10
103.241383391283
 20
161.991383391283
 30
0.0
 11
113.5355339059329
 21
172.2855339059328
 31
0.0
  0
LWPOLYLINE
  5
364
330
38B
100
AcDbEntity
  8
04_INSIDE
100
AcDbPolyline
 90
        4
 70
   129
 43
0.0
 10
358.5010817015467
 20
-165.8300710051601
 42
0.9999999999999999
 10
358.5010817015467
 20
-162.63007100516
 10
352.5010817015467
 20
-162.63007100516
 42
0.9999999999999999
 10
352.5010817015467
 20
-165.8300710051601
  0
LWPOLYLINE
  5
365
330
38B
100
AcDbEntity
  8
05_OUTSIDE
100
AcDbPolyline
 90
        2
 70
   129
 43
0.0
 10
463.0010817015468
 20
-76.24999999999999
 42
1.0
 10
468.0010817015468
 20
-76.24999999999999
 42
1.0
  0
LWPOLYLINE
  5
366
330
38B
100
AcDbEntity
  8
05_OUTSIDE
100
AcDbPolyline
 90
        2
 70
   129
 43
0.0
 10
313.0010817015468
 20
-76.24999999999999
 42
1.0
 10
318.0010817015468
 20
-76.24999999999999
 42
1.0
  0
LINE
  5
129
330
38B
100
AcDbEntity
  8
0_Outside
100
AcDbLine
 10
117.0710678118655
 20
173.75
 30
0.0
 11
152.9289321881346
 21
173.75
 31
0.0
  0
LWPOLYLINE
  5
367
330
38B
100
AcDbEntity
  8
05_OUTSIDE
100
AcDbPolyline
 90
        2
 70
   129
 43
0.0
 10
303.0010817015468
 20
-216.25
 42
1.0
 10
308.0010817015468
 20
-216.25
 42
1.0
  0
LWPOLYLINE
  5
368
330
38B
100
AcDbEntity
  8
05_OUTSIDE
100
AcDbPolyline
 90
        2
 70
   129
 43
0.0
 10
473.0010817015468
 20
-216.25
 42
1.0
 10
478.0010817015468
 20
-216.25
 42
1.0
  0
LINE
  5
12A
330
38B
100
AcDbEntity
  8
0_Outside
100
AcDbLine
 10
156.4644660940672
 20
172.2855339059328
 30
0.0
 11
166.0355339059329
 21
162.7144660940673
 31
0.0
  0
LWPOLYLINE
  5
12B
330
38B
100
AcDbEntity
  8
0_Outside
100
AcDbPolyline
 90
        2
 70
   129
 43
0.0
 10
192.4639137031469
 20
13.7504210856097
 42
1.0
 10
197.4639137031469
 20
13.7504210856097
 42
1.0
  0
LINE
  5
12C
330
38B
100
AcDbEntity
  8
0_Outside
100
AcDbLine
 10
164.9999999999999
 20
141.25
 30
0.0
 11
164.9999999999999
 21
116.8401699437495
 31
0.0
  0
LINE
  5
12D
330
38B
100
AcDbEntity
  8
0_Outside
100
AcDbLine
 10
193.0
 20
97.46765404427427
 30
0.0
 11
193.0
 21
83.74999999999997
 31
0.0
  0
LINE
  5
12E
330
38B
100
AcDbEntity
  8
0_Outside
100
AcDbLine
 10
193.0
 20
83.74999999999997
 30
0.0
 11
193.0
 21
25.88466109951167
 31
0.0
  0
LINE
  5
12F
330
38B
100
AcDbEntity
  8
0_Outside
100
AcDbLine
 10
183.5435607626104
 20
13.75000000000003
 30
0.0
 11
116.1803398874989
 21
13.75000000000003
 31
0.0
  0
LINE
  5
130
330
38B
100
AcDbEntity
  8
0_Outside
100
AcDbLine
 10
113.9442719099991
 20
14.27786404500043
 30
0.0
 11
106.0557280900008
 21
18.22213595499957
 31
0.0
  0
LINE
  5
131
330
38B
100
AcDbEntity
  8
0_Outside
100
AcDbLine
 10
103.8196601125011
 20
18.74999999999999
 30
0.0
 11
37.50000000000006
 21
18.74999999999999
 31
0.0
  0
LINE
  5
132
330
38B
100
AcDbEntity
  8
0_Outside
100
AcDbLine
 10
24.99999999999994
 20
25.20643923738967
 30
0.0
 11
24.99999999999994
 21
84.84620624369822
 31
0.0
  0
ARC
  5
133
330
38B
100
AcDbEntity
  8
0_Outside
100
AcDbCircle
 10
117.0710678118655
 20
168.75
 30
0.0
 40
5.0
100
AcDbArc
 50
90.0
 51
135.0
1001
QCAD
1000
reversed:1
  0
ARC
  5
134
330
38B
100
AcDbEntity
  8
0_Outside
100
AcDbCircle
 10
152.9289321881346
 20
168.75
 30
0.0
 40
5.0
100
AcDbArc
 50
45.0
 51
90.0
1001
QCAD
1000
reversed:1
  0
ARC
  5
135
330
38B
100
AcDbEntity
  8
0_Outside
100
AcDbCircle
 10
169.9999999999999
 20
116.8401699437495
 30
0.0
 40
5.0
100
AcDbArc
 50
180.0
 51
243.4349488229221
  0
ARC
  5
136
330
38B
100
AcDbEntity
  8
0_Outside
100
AcDbCircle
 10
116.1803398874989
 20
18.74999999999999
 30
0.0
 40
5.0
100
AcDbArc
 50
243.434948822922
 51
270.0
1001
QCAD
1000
reversed:1
  0
ARC
  5
137
330
38B
100
AcDbEntity
  8
0_Outside
100
AcDbCircle
 10
103.8196601125011
 20
13.75000000000003
 30
0.0
 40
5.0
100
AcDbArc
 50
63.43494882292206
 51
90.0
  0
LINE
  5
138
330
38B
100
AcDbEntity
  8
0_Outside
100
AcDbLine
 10
190.1042934766594
 20
102.0032850879207
 30
0.0
 11
167.7639320225003
 21
112.3680339887499
 31
0.0
  0
ARC
  5
139
330
38B
100
AcDbEntity
  8
0_Outside
100
AcDbCircle
 10
187.9999999999999
 20
97.46765404427427
 30
0.0
 40
5.0
100
AcDbArc
 50
0.0
 51
65.11118761156465
  0
CIRCLE
  5
13A
330
38B
100
AcDbEntity
  8
0_Outside
100
AcDbCircle
 10
184.9999999999999
 20
153.75
 30
0.0
 40
2.5
  0
CIRCLE
  5
13B
330
38B
100
AcDbEntity
  8
0_Outside
100
AcDbCircle
 10
24.99999999999994
 20
13.75000000000003
 30
0.0
 40
2.5
  0
ARC
  5
13C
330
38B
100
AcDbEntity
  8
0_Outside
100
AcDbCircle
 10
24.99999999999994
 20
13.75000000000003
 30
0.0
 40
7.5
100
AcDbArc
 50
180.0
 51
0.0
  0
ARC
  5
13D
330
38B
100
AcDbEntity
  8
0_Outside
100
AcDbCircle
 10
24.99999999999994
 20
13.75000000000003
 30
0.0
 40
7.5
100
AcDbArc
 50
113.5781784782018
 51
180.0
  0
ARC
  5
13E
330
38B
100
AcDbEntity
  8
0_Outside
100
AcDbCircle
 10
184.9999999999999
 20
153.75
 30
0.0
 40
7.5
100
AcDbArc
 50
270.0
 51
0.0
  0
ARC
  5
13F
330
38B
100
AcDbEntity
  8
0_Outside
100
AcDbCircle
 10
184.9999999999999
 20
153.75
 30
0.0
 40
7.5
100
AcDbArc
 50
270.0
 51
90.0
  0
ARC
  5
140
330
38B
100
AcDbEntity
  8
0_Outside
100
AcDbCircle
 10
195.0
 20
13.75000000000003
 30
0.0
 40
7.5
100
AcDbArc
 50
203.5781784782018
 51
0.0
  0
ARC
  5
141
330
38B
100
AcDbEntity
  8
0_Outside
100
AcDbCircle
 10
195.0
 20
13.75000000000003
 30
0.0
 40
7.5
100
AcDbArc
 50
0.0
 51
76.11345963737105
  0
ARC
  5
142
330
38B
100
AcDbEntity
  8
0_Outside
100
AcDbCircle
 10
19.99999999999994
 20
25.20643923738967
 30
0.0
 40
5.0
100
AcDbArc
 50
293.5781784782019
 51
0.0
  0
ARC
  5
143
330
38B
100
AcDbEntity
  8
0_Outside
100
AcDbCircle
 10
37.50000000000006
 20
13.75000000000003
 30
0.0
 40
5.0
100
AcDbArc
 50
89.99999999999982
 51
180.0
1001
QCAD
1000
reversed:1
  0
LINE
  5
144
330
38B
100
AcDbEntity
  8
0_Outside
100
AcDbLine
 10
184.9999999999999
 20
161.25
 30
0.0
 11
169.5710678118655
 21
161.25
 31
0.0
  0
LINE
  5
145
330
38B
100
AcDbEntity
  8
0_Outside
100
AcDbLine
 10
184.9999999999999
 20
146.25
 30
0.0
 11
169.9999999999999
 21
146.25
 31
0.0
  0
ARC
  5
146
330
38B
100
AcDbEntity
  8
0_Outside
100
AcDbCircle
 10
198.0
 20
25.88466109951167
 30
0.0
 40
5.0
100
AcDbArc
 50
180.0
 51
256.1134596373711
  0
ARC
  5
147
330
38B
100
AcDbEntity
  8
0_Outside
100
AcDbCircle
 10
183.5435607626104
 20
8.750000000000028
 30
0.0
 40
5.0
100
AcDbArc
 50
23.57817847820179
 51
90.0
  0
ARC
  5
148
330
38B
100
AcDbEntity
  8
0_Outside
100
AcDbCircle
 10
169.9999999999999
 20
141.25
 30
0.0
 40
5.0
100
AcDbArc
 50
90.0
 51
180.0
  0
ARC
  5
149
330
38B
100
AcDbEntity
  8
0_Outside
100
AcDbCircle
 10
169.5710678118655
 20
166.25
 30
0.0
 40
5.0
100
AcDbArc
 50
225.0
 51
270.0
1001
QCAD
1000
reversed:1
  0
CIRCLE
  5
14A
330
38B
100
AcDbEntity
  8
0_Outside
100
AcDbCircle
 10
42.77843584579239
 20
34.97780083547887
 30
0.0
 40
2.5
  0
CIRCLE
  5
14B
330
38B
100
AcDbEntity
  8
0_Outside
100
AcDbCircle
 10
72.77843584579239
 20
34.97780083547887
 30
0.0
 40
2.5
  0
CIRCLE
  5
14C
330
38B
100
AcDbEntity
  8
0_Outside
100
AcDbCircle
 10
102.7784358457924
 20
34.97780083547887
 30
0.0
 40
2.5
  0
CIRCLE
  5
14D
330
38B
100
AcDbEntity
  8
0_Outside
100
AcDbCircle
 10
162.7784358457924
 20
34.97780083547887
 30
0.0
 40
2.5
  0
CIRCLE
  5
14E
330
38B
100
AcDbEntity
  8
0_Outside
100
AcDbCircle
 10
42.77843584579239
 20
44.97780083547889
 30
0.0
 40
2.5
  0
CIRCLE
  5
14F
330
38B
100
AcDbEntity
  8
0_Outside
100
AcDbCircle
 10
42.77843584579239
 20
54.97780083547889
 30
0.0
 40
2.5
  0
CIRCLE
  5
150
330
38B
100
AcDbEntity
  8
0_Outside
100
AcDbCircle
 10
42.77843584579239
 20
64.97780083547889
 30
0.0
 40
2.5
  0
CIRCLE
  5
151
330
38B
100
AcDbEntity
  8
0_Outside
100
AcDbCircle
 10
42.77843584579239
 20
74.97780083547889
 30
0.0
 40
2.5
  0
CIRCLE
  5
152
330
38B
100
AcDbEntity
  8
0_Outside
100
AcDbCircle
 10
42.77843584579239
 20
84.97780083547889
 30
0.0
 40
2.5
  0
CIRCLE
  5
153
330
38B
100
AcDbEntity
  8
0_Outside
100
AcDbCircle
 10
72.77843584579239
 20
84.97780083547889
 30
0.0
 40
2.5
  0
CIRCLE
  5
154
330
38B
100
AcDbEntity
  8
0_Outside
100
AcDbCircle
 10
122.7784358457924
 20
84.97780083547889
 30
0.0
 40
2.5
  0
CIRCLE
  5
155
330
38B
100
AcDbEntity
  8
0_Outside
100
AcDbCircle
 10
112.7784358457924
 20
84.97780083547889
 30
0.0
 40
2.5
  0
CIRCLE
  5
156
330
38B
100
AcDbEntity
  8
0_Outside
100
AcDbCircle
 10
103.3124512031483
 20
84.97780083547889
 30
0.0
 40
2.5
  0
CIRCLE
  5
157
330
38B
100
AcDbEntity
  8
0_Outside
100
AcDbCircle
 10
162.7784358457924
 20
84.97780083547889
 30
0.0
 40
2.5
  0
CIRCLE
  5
158
330
38B
100
AcDbEntity
  8
0_Outside
100
AcDbCircle
 10
122.7784358457924
 20
94.97780083547889
 30
0.0
 40
2.5
  0
CIRCLE
  5
159
330
38B
100
AcDbEntity
  8
0_Outside
100
AcDbCircle
 10
112.7784358457924
 20
94.97780083547889
 30
0.0
 40
2.5
  0
CIRCLE
  5
15A
330
38B
100
AcDbEntity
  8
0_Outside
100
AcDbCircle
 10
162.7784358457924
 20
94.97780083547889
 30
0.0
 40
2.5
  0
CIRCLE
  5
15B
330
38B
100
AcDbEntity
  8
0_Outside
100
AcDbCircle
 10
142.7784358457924
 20
124.9778008354789
 30
0.0
 40
2.5
  0
CIRCLE
  5
15C
330
38B
100
AcDbEntity
  8
0_Outside
100
AcDbCircle
 10
112.7784358457924
 20
134.9778008354789
 30
0.0
 40
2.5
  0
CIRCLE
  5
15D
330
38B
100
AcDbEntity
  8
0_Outside
100
AcDbCircle
 10
142.7784358457924
 20
134.9778008354789
 30
0.0
 40
2.5
  0
CIRCLE
  5
15E
330
38B
100
AcDbEntity
  8
0_Outside
100
AcDbCircle
 10
112.7784358457924
 20
144.9778008354789
 30
0.0
 40
2.5
  0
CIRCLE
  5
15F
330
38B
100
AcDbEntity
  8
0_Outside
100
AcDbCircle
 10
142.7784358457924
 20
144.9778008354789
 30
0.0
 40
2.5
  0
CIRCLE
  5
160
330
38B
100
AcDbEntity
  8
0_Outside
100
AcDbCircle
 10
112.7784358457924
 20
154.9778008354789
 30
0.0
 40
2.5
  0
CIRCLE
  5
161
330
38B
100
AcDbEntity
  8
0_Outside
100
AcDbCircle
 10
142.7784358457924
 20
154.9778008354789
 30
0.0
 40
2.5
  0
CIRCLE
  5
162
330
38B
100
AcDbEntity
  8
0_Outside
100
AcDbCircle
 10
142.7784358457924
 20
164.9778008354789
 30
0.0
 40
2.5
  0
CIRCLE
  5
163
330
38B
100
AcDbEntity
  8
0_Outside
100
AcDbCircle
 10
32.77843584579239
 20
34.97780083547887
 30
0.0
 40
2.5
  0
CIRCLE
  5
164
330
38B
100
AcDbEntity
  8
0_Outside
100
AcDbCircle
 10
32.77843584579239
 20
44.97780083547889
 30
0.0
 40
2.5
  0
CIRCLE
  5
165
330
38B
100
AcDbEntity
  8
0_Outside
100
AcDbCircle
 10
32.77843584579239
 20
54.97780083547889
 30
0.0
 40
2.5
  0
CIRCLE
  5
1B0
330
38B
100
AcDbEntity
  8
0_Outside
100
AcDbCircle
 10
229.9936557567378
 20
14.97480812453327
 30
0.0
 40
2.5
  0
CIRCLE
  5
166
330
38B
100
AcDbEntity
  8
0_Outside
100
AcDbCircle
 10
32.77843584579239
 20
64.97780083547889
 30
0.0
 40
2.5
  0
CIRCLE
  5
167
330
38B
100
AcDbEntity
  8
0_Outside
100
AcDbCircle
 10
32.77843584579239
 20
74.97780083547889
 30
0.0
 40
2.5
  0
CIRCLE
  5
168
330
38B
100
AcDbEntity
  8
0_Outside
100
AcDbCircle
 10
32.77843584579239
 20
84.97780083547889
 30
0.0
 40
2.5
  0
CIRCLE
  5
169
330
38B
100
AcDbEntity
  8
0_Outside
100
AcDbCircle
 10
52.77843584579239
 20
34.97780083547887
 30
0.0
 40
2.5
  0
CIRCLE
  5
16A
330
38B
100
AcDbEntity
  8
0_Outside
100
AcDbCircle
 10
82.77843584579239
 20
34.97780083547887
 30
0.0
 40
2.5
  0
CIRCLE
  5
16B
330
38B
100
AcDbEntity
  8
0_Outside
100
AcDbCircle
 10
112.7784358457924
 20
34.97780083547887
 30
0.0
 40
2.5
  0
CIRCLE
  5
16C
330
38B
100
AcDbEntity
  8
0_Outside
100
AcDbCircle
 10
142.7784358457924
 20
34.97780083547887
 30
0.0
 40
2.5
  0
CIRCLE
  5
16D
330
38B
100
AcDbEntity
  8
0_Outside
100
AcDbCircle
 10
172.7784358457924
 20
34.97780083547887
 30
0.0
 40
2.5
  0
CIRCLE
  5
16E
330
38B
100
AcDbEntity
  8
0_Outside
100
AcDbCircle
 10
172.7784358457924
 20
44.97780083547889
 30
0.0
 40
2.5
  0
CIRCLE
  5
16F
330
38B
100
AcDbEntity
  8
0_Outside
100
AcDbCircle
 10
162.7784358457924
 20
44.97780083547889
 30
0.0
 40
2.5
  0
CIRCLE
  5
170
330
38B
100
AcDbEntity
  8
0_Outside
100
AcDbCircle
 10
172.7784358457924
 20
54.97780083547889
 30
0.0
 40
2.5
  0
CIRCLE
  5
171
330
38B
100
AcDbEntity
  8
0_Outside
100
AcDbCircle
 10
162.7784358457924
 20
54.97780083547889
 30
0.0
 40
2.5
  0
CIRCLE
  5
1B1
330
38B
100
AcDbEntity
  8
0_Outside
100
AcDbCircle
 10
369.9936557567378
 20
14.97480812453327
 30
0.0
 40
2.5
  0
CIRCLE
  5
172
330
38B
100
AcDbEntity
  8
0_Outside
100
AcDbCircle
 10
172.7784358457924
 20
64.97780083547889
 30
0.0
 40
2.5
  0
CIRCLE
  5
173
330
38B
100
AcDbEntity
  8
0_Outside
100
AcDbCircle
 10
162.7784358457924
 20
64.97780083547889
 30
0.0
 40
2.5
  0
CIRCLE
  5
174
330
38B
100
AcDbEntity
  8
0_Outside
100
AcDbCircle
 10
172.7784358457924
 20
74.97780083547889
 30
0.0
 40
2.5
  0
CIRCLE
  5
175
330
38B
100
AcDbEntity
  8
0_Outside
100
AcDbCircle
 10
162.7784358457924
 20
74.97780083547889
 30
0.0
 40
2.5
  0
CIRCLE
  5
176
330
38B
100
AcDbEntity
  8
0_Outside
100
AcDbCircle
 10
52.77843584579239
 20
84.97780083547889
 30
0.0
 40
2.5
  0
CIRCLE
  5
177
330
38B
100
AcDbEntity
  8
0_Outside
100
AcDbCircle
 10
82.77843584579239
 20
84.97780083547889
 30
0.0
 40
2.5
  0
CIRCLE
  5
178
330
38B
100
AcDbEntity
  8
0_Outside
100
AcDbCircle
 10
172.7784358457924
 20
84.97780083547889
 30
0.0
 40
2.5
  0
CIRCLE
  5
179
330
38B
100
AcDbEntity
  8
0_Outside
100
AcDbCircle
 10
172.7784358457924
 20
94.97780083547889
 30
0.0
 40
2.5
  0
CIRCLE
  5
17A
330
38B
100
AcDbEntity
  8
0_Outside
100
AcDbCircle
 10
152.7784358457924
 20
124.9778008354789
 30
0.0
 40
2.5
  0
CIRCLE
  5
17B
330
38B
100
AcDbEntity
  8
0_Outside
100
AcDbCircle
 10
122.7784358457924
 20
134.9778008354789
 30
0.0
 40
2.5
  0
CIRCLE
  5
17C
330
38B
100
AcDbEntity
  8
0_Outside
100
AcDbCircle
 10
152.7784358457924
 20
134.9778008354789
 30
0.0
 40
2.5
  0
CIRCLE
  5
17D
330
38B
100
AcDbEntity
  8
0_Outside
100
AcDbCircle
 10
122.7784358457924
 20
144.9778008354789
 30
0.0
 40
2.5
  0
CIRCLE
  5
17E
330
38B
100
AcDbEntity
  8
0_Outside
100
AcDbCircle
 10
152.7784358457924
 20
144.9778008354789
 30
0.0
 40
2.5
  0
CIRCLE
  5
17F
330
38B
100
AcDbEntity
  8
0_Outside
100
AcDbCircle
 10
122.7784358457924
 20
154.9778008354789
 30
0.0
 40
2.5
  0
CIRCLE
  5
180
330
38B
100
AcDbEntity
  8
0_Outside
100
AcDbCircle
 10
152.7784358457924
 20
154.9778008354789
 30
0.0
 40
2.5
  0
CIRCLE
  5
181
330
38B
100
AcDbEntity
  8
0_Outside
100
AcDbCircle
 10
122.7784358457924
 20
164.9778008354789
 30
0.0
 40
2.5
  0
CIRCLE
  5
182
330
38B
100
AcDbEntity
  8
0_Outside
100
AcDbCircle
 10
152.7784358457924
 20
164.9778008354789
 30
0.0
 40
2.5
  0
CIRCLE
  5
183
330
38B
100
AcDbEntity
  8
0_Outside
100
AcDbCircle
 10
62.77843584579239
 20
34.97780083547887
 30
0.0
 40
2.5
  0
CIRCLE
  5
184
330
38B
100
AcDbEntity
  8
0_Outside
100
AcDbCircle
 10
92.77843584579239
 20
34.97780083547887
 30
0.0
 40
2.5
  0
CIRCLE
  5
185
330
38B
100
AcDbEntity
  8
0_Outside
100
AcDbCircle
 10
122.7784358457924
 20
34.97780083547887
 30
0.0
 40
2.5
  0
CIRCLE
  5
186
330
38B
100
AcDbEntity
  8
0_Outside
100
AcDbCircle
 10
152.7784358457924
 20
34.97780083547887
 30
0.0
 40
2.5
  0
CIRCLE
  5
187
330
38B
100
AcDbEntity
  8
0_Outside
100
AcDbCircle
 10
62.77843584579239
 20
84.97780083547889
 30
0.0
 40
2.5
  0
CIRCLE
  5
188
330
38B
100
AcDbEntity
  8
0_Outside
100
AcDbCircle
 10
92.77843584579239
 20
84.97780083547889
 30
0.0
 40
2.5
  0
CIRCLE
  5
189
330
38B
100
AcDbEntity
  8
0_Outside
100
AcDbCircle
 10
152.7784358457924
 20
84.97780083547889
 30
0.0
 40
2.5
  0
CIRCLE
  5
18A
330
38B
100
AcDbEntity
  8
0_Outside
100
AcDbCircle
 10
152.7784358457924
 20
94.97780083547889
 30
0.0
 40
2.5
  0
CIRCLE
  5
18B
330
38B
100
AcDbEntity
  8
0_Outside
100
AcDbCircle
 10
132.7784358457924
 20
124.9778008354789
 30
0.0
 40
2.5
  0
CIRCLE
  5
18C
330
38B
100
AcDbEntity
  8
0_Outside
100
AcDbCircle
 10
122.7784358457924
 20
124.9778008354789
 30
0.0
 40
2.5
  0
CIRCLE
  5
18D
330
38B
100
AcDbEntity
  8
0_Outside
100
AcDbCircle
 10
112.7784358457924
 20
124.9778008354789
 30
0.0
 40
2.5
  0
CIRCLE
  5
18E
330
38B
100
AcDbEntity
  8
0_Outside
100
AcDbCircle
 10
132.7784358457924
 20
134.9778008354789
 30
0.0
 40
2.5
  0
CIRCLE
  5
18F
330
38B
100
AcDbEntity
  8
0_Outside
100
AcDbCircle
 10
132.7784358457924
 20
144.9778008354789
 30
0.0
 40
2.5
  0
CIRCLE
  5
190
330
38B
100
AcDbEntity
  8
0_Outside
100
AcDbCircle
 10
132.7784358457924
 20
154.9778008354789
 30
0.0
 40
2.5
  0
CIRCLE
  5
191
330
38B
100
AcDbEntity
  8
0_Outside
100
AcDbCircle
 10
162.7784358457924
 20
154.9778008354789
 30
0.0
 40
2.5
  0
CIRCLE
  5
192
330
38B
100
AcDbEntity
  8
0_Outside
100
AcDbCircle
 10
132.7784358457924
 20
164.9778008354789
 30
0.0
 40
2.5
  0
CIRCLE
  5
1B2
330
38B
100
AcDbEntity
  8
0_Outside
100
AcDbCircle
 10
329.9936557567378
 20
124.9748081245333
 30
0.0
 40
2.5
  0
LINE
  5
193
330
38B
100
AcDbEntity
  8
0_Outside
100
AcDbLine
 10
35.0
 20
94.84620624369822
 30
0.0
 11
90.31245120314827
 21
94.84620624369822
 31
0.0
  0
LINE
  5
194
330
38B
100
AcDbEntity
  8
0_Outside
100
AcDbLine
 10
100.3124512031483
 20
154.9203155794175
 30
0.0
 11
100.3124512031483
 21
104.8462062436982
 31
0.0
  0
ARC
  5
195
330
38B
100
AcDbEntity
  8
0_Outside
100
AcDbCircle
 10
90.31245120314827
 20
104.8462062436982
 30
0.0
 40
10.0
100
AcDbArc
 50
270.0
 51
0.0
  0
ARC
  5
196
330
38B
100
AcDbEntity
  8
0_Outside
100
AcDbCircle
 10
35.0
 20
84.84620624369822
 30
0.0
 40
10.0
100
AcDbArc
 50
90.0
 51
180.0
  0
ARC
  5
197
330
38B
100
AcDbEntity
  8
0_Outside
100
AcDbCircle
 10
110.3124512031483
 20
154.9203155794175
 30
0.0
 40
10.0
100
AcDbArc
 50
134.9999999999994
 51
180.0
1001
QCAD
1000
reversed:1
  0
LWPOLYLINE
  5
199
330
38B
100
AcDbEntity
  8
Engrave
100
AcDbPolyline
 90
       13
 70
   129
 43
0.0
 10
72.77924505439023
 20
76.84564509270538
 10
70.83751646620095
 20
61.84564509270538
 10
67.57197090499642
 20
61.84564509270538
 10
66.25988643100345
 20
72.77837876497759
 10
64.87154071336562
 20
61.84564509270538
 10
61.54146640753845
 20
61.84564509270538
 10
59.74052780761667
 20
76.84564509270538
 10
62.57197090499642
 20
76.84564509270538
 10
63.46168541418689
 20
64.54607528433621
 10
64.89305029490646
 20
75.11119065390992
 10
67.69125131172302
 20
75.11119065390992
 10
69.04831036530146
 20
64.54607528433621
 10
70.15312068990062
 20
76.84564509270538
  0
LWPOLYLINE
  5
19A
330
38B
100
AcDbEntity
  8
Engrave
100
AcDbPolyline
 90
        8
 70
   129
 43
0.0
 10
81.70376597734685
 20
65.28326730623687
 10
76.76829472196943
 20
65.28326730623687
 10
75.83556104969722
 20
61.84564509270538
 10
72.76555713886421
 20
61.84564509270538
 10
77.46246758078837
 20
76.84564509270538
 10
81.10736394371366
 20
76.84564509270538
 10
85.79254188661548
 20
61.84564509270538
 10
82.636499649619
 20
61.84564509270538
  0
LWPOLYLINE
  5
19B
330
38B
100
AcDbEntity
  8
Engrave
100
AcDbPolyline
 90
        3
 70
   129
 43
0.0
 10
77.30016801097997
 20
67.50657587096114
 10
81.1503831067954
 20
67.50657587096114
 10
79.23016410014696
 20
74.6223365279811
  0
LWPOLYLINE
  5
19C
330
38B
100
AcDbEntity
  8
Engrave
100
AcDbPolyline
 90
        6
 70
   129
 43
0.0
 10
88.1214429425404
 20
61.84564509270538
 10
88.1214429425404
 20
76.84564509270538
 10
91.09367602818764
 20
76.84564509270538
 10
91.09367602818764
 20
64.2527628087789
 10
97.71080547676019
 20
64.2527628087789
 10
97.39598341966206
 20
61.84564509270538
  0
LWPOLYLINE
  5
19D
330
38B
100
AcDbEntity
  8
Engrave
100
AcDbPolyline
 90
        6
 70
   129
 43
0.0
 10
101.1347397747656
 20
61.84564509270538
 10
101.1347397747656
 20
76.84564509270538
 10
104.106972860413
 20
76.84564509270538
 10
104.106972860413
 20
64.2527628087789
 10
110.7241023089855
 20
64.2527628087789
 10
110.4092802518873
 20
61.84564509270538
  0
LWPOLYLINE
  5
19E
330
38B
100
AcDbEntity
  8
Engrave
100
AcDbPolyline
 90
       28
 70
   129
 43
0.0
 10
123.4655962471943
 20
62.4850662894203
 42
-0.0735999821298642
 10
121.9149509597481
 20
61.79187113885322
 42
-0.0725555235632792
 10
119.9399802909957
 20
61.52104595308865
 42
-0.0331281333938022
 10
118.9893948192361
 20
61.58409739497907
 42
-0.0409964602907293
 10
118.2367539157885
 20
61.74799122167116
 42
-0.0591990644729468
 10
117.408402729597
 20
62.11257587909228
 42
-0.0664060594558485
 10
116.7731832632287
 20
62.61119065390992
 42
-0.0557965069878035
 10
116.2914867377095
 20
63.23030707683694
 42
-0.0546876872017047
 10
115.9502982158437
 20
63.95416901534247
 42
-0.0446332095043569
 10
115.775426737588
 20
64.66265325562796
 42
-0.0382137841941514
 10
115.7104143934595
 20
65.51205103717137
 10
115.7104143934595
 20
71.30399472117625
 10
113.2153029347187
 20
71.30399472117625
 10
113.2153029347187
 20
73.331761635529
 10
115.7104143934595
 20
73.331761635529
 10
115.7104143934595
 20
75.86011517483288
 10
118.5731441548987
 20
76.20622389599049
 10
118.5731441548987
 20
73.331761635529
 10
122.3705630051138
 20
73.331761635529
 10
122.0772505295565
 20
71.30399472117625
 10
118.5731441548987
 20
71.30399472117625
 10
118.5731441548987
 20
65.52182811969013
 42
0.0807250704651618
 10
118.7080071976537
 20
64.69194836873655
 42
0.1227599587312388
 10
119.0072466187235
 20
64.22147614471947
 42
0.1189104469527286
 10
119.4939821694526
 20
63.94065955453746
 42
0.0717680033572957
 10
120.4073248353836
 20
63.80888326243553
 42
0.0695020499940495
 10
121.5404886992866
 20
63.95553950021417
 42
0.0539685135275368
 10
122.4781109128181
 20
64.32902405242382
  0
LWPOLYLINE
  5
19F
330
38B
100
AcDbEntity
  8
Engrave
100
AcDbPolyline
 90
       27
 70
   129
 43
0.0
 10
129.0052912022197
 20
66.71658760346017
 42
0.0296236388862275
 10
129.1059124532115
 20
66.00292318369836
 42
0.0372639567397935
 10
129.2609088033556
 20
65.45103121922958
 42
0.058054429739295
 10
129.5734951166825
 20
64.82682179461116
 42
0.0689878054420658
 10
129.9605121642846
 20
64.38377571452784
 42
0.1865472441093931
 10
131.9657917888447
 20
63.66809327416803
 42
0.0867294068154565
 10
133.5174147845428
 20
63.92816366916216
 42
0.0604467950714536
 10
134.9497573735142
 20
64.65557860854426
 10
136.1425614407806
 20
63.01693957843085
 42
-0.0861614947926586
 10
134.2272309753914
 20
61.93266112712072
 42
-0.089357548191783
 10
131.7819826374954
 20
61.52104595308865
 42
-0.0601616458043323
 10
129.9772258705979
 20
61.73898905625146
 42
-0.0758931729738309
 10
128.6425614407805
 20
62.29050234730062
 42
-0.1499770852676972
 10
126.7174538928729
 20
64.42679487760958
 42
-0.1124419430389349
 10
126.0663001971357
 20
67.57306003208748
 42
-0.109303240161441
 10
126.7008328525912
 20
70.6635958162095
 42
-0.1409843295214092
 10
128.5447906155948
 20
72.84975146736318
 42
-0.1509915713761768
 10
131.4573834978787
 20
73.65831619164945
 42
-0.0432397988144677
 10
132.5794486419783
 20
73.56109868382464
 42
-0.0503558642859519
 10
133.5112368198257
 20
73.29972610650287
 42
-0.0585554595491862
 10
134.4208078249258
 20
72.81330644129969
 42
-0.0574031577840547
 10
135.2098277685084
 20
72.1174479867218
 42
-0.0584319951391162
 10
135.8424004881854
 20
71.22506180156574
 42
-0.053329111769311
 10
136.3015178889956
 20
70.11871029399404
 42
-0.03914830147651
 10
136.5168595687034
 20
69.10111728780814
 42
-0.032582860700031
 10
136.5981734861462
 20
67.85464000862314
 42
-0.0266279904783344
 10
136.5434218240422
 20
66.71658760346017
  0
LWPOLYLINE
  5
1A0
330
38B
100
AcDbEntity
  8
Engrave
100
AcDbPolyline
 90
       10
 70
   129
 43
0.0
 10
131.4671605803973
 20
71.64032635981519
 42
0.2240087276740878
 10
129.759104264402
 20
70.89140183889234
 42
0.1013580186147801
 10
129.2781102057159
 20
70.06318969183607
 42
0.0624360163506785
 10
128.9720491216567
 20
68.5488128674414
 10
133.8097495518482
 20
68.5488128674414
 42
0.0605449270502912
 10
133.6188053629867
 20
69.94679091468367
 42
0.0890235945607649
 10
133.213347518215
 20
70.82100684475856
 42
0.0671678751733071
 10
132.8668549574608
 20
71.19595143882174
 42
0.069410168650741
 10
132.4460869443894
 20
71.45513420113605
 42
0.0566896313908139
 10
132.0132871978803
 20
71.58912265896225
 42
0.0467763920856509
  0
LWPOLYLINE
  5
1A1
330
38B
100
AcDbEntity
  8
Engrave
100
AcDbPolyline
 90
       20
 70
   129
 43
0.0
 10
139.6877315620164
 20
61.84564509270538
 10
139.6877315620164
 20
63.8303928439764
 10
141.3029055940852
 20
63.8303928439764
 10
141.3029055940852
 20
71.35874638328028
 10
139.6877315620164
 20
71.35874638328028
 10
139.6877315620164
 20
73.331761635529
 10
143.4831949957278
 20
73.331761635529
 10
144.0150682847383
 20
70.69586018852078
 42
-0.1256813483082891
 10
145.5979779444958
 20
72.89863687995606
 42
-0.171424847960411
 10
147.9943408697989
 20
73.64658369262716
 42
-0.0502708520587404
 10
148.9710714134047
 20
73.55956765821185
 42
-0.0338098996295056
 10
149.7952794697207
 20
73.331761635529
 10
149.2868711787547
 20
68.85190242551727
 10
147.3764292546249
 20
68.85190242551727
 10
147.3764292546249
 20
71.09672057178241
 42
0.1992573009391921
 10
145.4464331654579
 20
70.0838148228579
 42
0.1060488189880739
 10
144.1656353555244
 20
67.67083085727324
 10
144.1656353555244
 20
63.8303928439764
 10
146.455428081375
 20
63.8303928439764
 10
146.455428081375
 20
61.84564509270538
  0
LWPOLYLINE
  5
1A2
330
38B
100
AcDbEntity
  8
Engrave
100
AcDbPolyline
 90
        7
 70
   129
 43
0.0
 10
71.02132561755013
 20
55.08068615645195
 10
67.07138428004527
 20
43.59456961362832
 10
63.7100233101587
 20
43.59456961362832
 10
59.74052780761662
 20
55.08068615645195
 10
62.82030880096823
 20
55.08068615645195
 10
65.43470066643556
 20
45.88240692297521
 10
68.10188877750323
 20
55.08068615645195
  0
LWPOLYLINE
  5
1A3
330
38B
100
AcDbEntity
  8
Engrave
100
AcDbPolyline
 90
       32
 70
   129
 43
0.0
 10
78.39324583655679
 20
58.92112416974877
 42
-0.0543124550687781
 10
79.63621999772789
 20
58.78570675310007
 42
-0.0639347191532139
 10
80.63701611879611
 20
58.42635068709751
 42
-0.0688620944103622
 10
81.53294147963999
 20
57.80025828160765
 42
-0.0623429362686776
 10
82.3089673852466
 20
56.87673621511442
 42
-0.052528443668193
 10
82.91118725714381
 20
55.68925704310686
 42
-0.0421463657673129
 10
83.36955788509425
 20
54.09607214455582
 42
-0.0269865995922441
 10
83.55941976398202
 20
52.76742887034322
 42
-0.0219980557687633
 10
83.6318066500101
 20
51.12292315293172
 42
-0.0219016201723936
 10
83.55914348553944
 20
49.46486523844908
 42
-0.0268742325858104
 10
83.36857840529228
 20
48.12546597428567
 42
-0.0418368958929034
 10
82.91034695707373
 20
46.52401395717683
 42
-0.0521772712880681
 10
82.30896738524666
 20
45.33000176067566
 42
-0.0625357906089927
 10
81.52860746040756
 20
44.3954796767575
 42
-0.069334120226413
 10
80.62880469329707
 20
43.76431333606857
 42
-0.063993726550188
 10
79.63080877483554
 20
43.40516692571933
 42
-0.0544600475730966
 10
78.39324583655679
 20
43.26997047401156
 42
-0.0545820794198392
 10
77.14573245883076
 20
43.40656115394953
 42
-0.064330423950951
 10
76.14309711452245
 20
43.76868832732026
 42
-0.0692499111905937
 10
75.24737036939598
 20
44.39921709262273
 42
-0.0625833005594978
 10
74.47263574660764
 20
45.33000176067563
 42
-0.0521484014145238
 10
73.87273340275652
 20
46.52591260539467
 42
-0.0417547753894976
 10
73.41575401658241
 20
48.1315020455348
 42
-0.0266994897055009
 10
73.22673957685225
 20
49.46853166672381
 42
-0.02176643693555
 10
73.15468502310353
 20
51.12292315293269
 42
-0.0219603109771373
 10
73.22707724274608
 20
52.77037951612428
 42
-0.0269537811104017
 10
73.41689594378704
 20
54.10077731369645
 42
-0.0419762264115626
 10
73.87343746459806
 20
55.69132586858635
 42
-0.0523464689165118
 10
74.4726357466077
 20
56.87673621511442
 42
-0.0631579700703606
 10
75.25278249900981
 20
57.8052823891725
 42
-0.069589176326648
 10
76.15766728767812
 20
58.4335942181612
 42
-0.0633990702583375
 10
77.15410370443283
 20
58.7875788445657
 42
-0.0537306330421103
  0
LWPOLYLINE
  5
1A4
330
38B
100
AcDbEntity
  8
Engrave
100
AcDbPolyline
 90
       12
 70
   129
 43
0.0
 10
78.39324583655679
 20
56.79558643021025
 42
0.0783967721115113
 10
77.77830760314339
 20
56.69857182814391
 42
0.0845175943195811
 10
77.26601969564337
 20
56.43083861533165
 42
0.066714078159424
 10
76.89345513352367
 20
56.05972540733345
 42
0.0522693243713655
 10
76.54342182404213
 20
55.48839049747659
 42
0.0521619885041021
 10
76.2613660213139
 20
54.69356485040237
 42
0.0319414931452012
 10
76.02480304142227
 20
53.33911110523835
 42
0.0154100623628327
 10
75.9493803804196
 20
52.37699595346939
 42
0.0118542728840965
 10
75.91964395935702
 20
51.12292315293234
 42
0.0401868983136577
 10
76.12691810875077
 20
47.75960676654191
 10
80.1179231928337
 20
55.9821331646647
 42
0.1470961104579529
 10
79.40224075247392
 20
56.61079957060917
 42
0.1034212254876147
  0
LWPOLYLINE
  5
1A5
330
38B
100
AcDbEntity
  8
Engrave
100
AcDbPolyline
 90
       12
 70
   129
 43
0.0
 10
80.85511521473433
 20
51.12292315293209
 42
0.0282444038231972
 10
80.72605772548917
 20
53.94263375128963
 10
76.84260054911056
 20
45.97040066564242
 42
0.1317759100914251
 10
77.50939757687752
 20
45.52554341104715
 42
0.0814633465181688
 10
78.39324583655679
 20
45.3955082135501
 42
0.0774099636468955
 10
79.0110811166694
 20
45.4917380650738
 42
0.0844023784872504
 10
79.52100874339686
 20
45.75554791450421
 42
0.0679195971470629
 10
79.89463310923583
 20
46.12624525888498
 42
0.0534155167055125
 10
80.24209214081958
 20
46.69683789677265
 42
0.0525557441236466
 10
80.51893641235336
 20
47.49151308782163
 42
0.0314092080227837
 10
80.75315167713637
 20
48.87744512986748
 42
0.0148105855613449
 10
80.82623058446217
 20
49.85005207075571
 42
0.0113447909615427
  0
LWPOLYLINE
  5
1A6
330
38B
100
AcDbEntity
  8
Engrave
100
AcDbPolyline
 90
        8
 70
   129
 43
0.0
 10
89.16172452251698
 20
45.51478862027673
 42
-0.2049136490724646
 10
89.81287821825413
 20
47.08694348926383
 42
-0.209291399116872
 10
91.39676558626348
 20
47.74787426751962
 42
-0.2092817178338832
 10
92.99043003679145
 20
47.08694348926383
 42
-0.2049136490725479
 10
93.64158373252866
 20
45.51478862027673
 42
-0.2049264770573599
 10
92.99043003679145
 20
43.93090125226735
 42
-0.2092817178338504
 10
91.39676558626348
 20
43.26997047401159
 42
-0.2092913991168879
 10
89.81287821825413
 20
43.93090125226735
 42
-0.2049264770572991
  0
LWPOLYLINE
  5
1A7
330
38B
100
AcDbEntity
  8
Engrave
100
AcDbPolyline
 90
       24
 70
   129
 43
0.0
 10
109.2360303496581
 20
55.00442491280705
 42
-0.1720027694599376
 10
108.6337620665138
 20
53.17219964882582
 42
-0.09774278238433
 10
106.8171801345623
 20
51.71932518656536
 42
-0.0482205467565946
 10
108.1227913032346
 20
50.93651546145512
 42
-0.0630967147016897
 10
108.9654461381991
 20
50.13159599850533
 42
-0.0866918604622175
 10
109.606260113348
 20
48.98414293756912
 42
-0.0842909718696355
 10
109.8324323832912
 20
47.65205885883756
 42
-0.1443253318032247
 10
109.2037659773468
 20
45.47079174894313
 42
-0.1407518563354824
 10
107.354919673084
 20
43.87126104890402
 42
-0.1149470385217339
 10
104.3650878389033
 20
43.26997047401159
 42
-0.0494369099352589
 10
102.6488964611603
 20
43.4400726021307
 42
-0.0655418504617093
 10
101.4153420430488
 20
43.86050625813357
 42
-0.1418840990453981
 10
99.614403443127
 20
45.42777258586139
 42
-0.1427305464359811
 10
99.0072466187234
 20
47.57579761519264
 42
-0.1771921885638948
 10
99.78256926244654
 20
49.8528801337691
 42
-0.1200748572134485
 10
101.860199297644
 20
51.38299354792633
 42
-0.1088024434973884
 10
100.1462767321376
 20
52.8309794689275
 42
-0.0876659285957276
 10
99.76203785416436
 20
53.6562225413615
 42
-0.0653105763192453
 10
99.60364865235658
 20
54.86363492453953
 42
-0.1656951762468224
 10
100.2821781791458
 20
57.08205494800455
 42
-0.1349291005781841
 10
102.0616071975267
 20
58.45475733361269
 42
-0.1014685609689635
 10
104.4315720000296
 20
58.92112416974877
 42
-0.0989995749026502
 10
106.8553107563847
 20
58.47040066564242
 42
-0.1395341610204206
 10
108.590742903432
 20
57.14169515136786
 42
-0.1632860906253504
  0
LWPOLYLINE
  5
1A8
330
38B
100
AcDbEntity
  8
Engrave
100
AcDbPolyline
 90
       14
 70
   129
 43
0.0
 10
102.3490534235729
 20
54.85385784202094
 42
0.0447707721025692
 10
102.3901460830921
 20
54.39585487980796
 42
0.0539139813682881
 10
102.4982238351221
 20
54.02925174183761
 42
0.0658408230645319
 10
102.7065306032528
 20
53.67036596513171
 42
0.0647872433405196
 10
103.0050956605693
 20
53.37262984045665
 42
0.0746348841551698
 10
104.930203208477
 20
52.4134980453843
 42
0.1007825438324108
 10
106.1337620665138
 20
53.53492941026499
 42
0.1462830739017613
 10
106.4925809949456
 20
54.85385784202097
 42
0.1942539851886065
 10
105.9665739554461
 20
56.34486292610387
 42
0.1180344779537722
 10
105.3669676382901
 20
56.74679977938953
 42
0.089123834010463
 10
104.4315720000296
 20
56.91486683693688
 42
0.0835814525812833
 10
103.5072229120133
 20
56.75926293101958
 42
0.1097767810937083
 10
102.8965700446131
 20
56.38299354792628
 42
0.1145106413429428
 10
102.5103686233975
 20
55.78292775368274
 42
0.0861707860863462
  0
LWPOLYLINE
  5
1A9
330
38B
100
AcDbEntity
  8
Engrave
100
AcDbPolyline
 90
       15
 70
   129
 43
0.0
 10
106.9364605412889
 20
47.65205885883753
 42
0.1614636604559822
 10
106.5619982808274
 20
48.99640770514182
 42
0.1206844200527085
 10
105.4610987892357
 20
49.86363492453955
 42
0.0289058045429283
 10
103.6611378975658
 20
50.60082694644021
 42
0.1088812939007923
 10
102.4077159186843
 20
49.48428412281879
 42
0.1607009793581918
 10
101.9032184607257
 20
47.70485510443788
 42
0.203769202908293
 10
102.5328625749221
 20
46.01341982872415
 42
0.0671715522649946
 10
102.9121308732639
 20
45.71969900614599
 42
0.0591686460266359
 10
103.4118107396179
 20
45.50452786834532
 42
0.0399329456890614
 10
103.8570276421473
 20
45.41028629044263
 42
0.0322043886516815
 10
104.4198395010073
 20
45.37399863200923
 42
0.0336241718179121
 10
104.9917573427311
 20
45.41250269167054
 42
0.0418535804518977
 10
105.4416319372677
 20
45.51220832620365
 42
0.0609929941983553
 10
105.9366226417115
 20
45.73539704195846
 42
0.0684280888582957
 10
106.3126826766037
 20
46.04079565977614
 42
0.1973662591538797
  0
LWPOLYLINE
  5
1AA
330
38B
100
AcDbEntity
  8
0_Outside
100
AcDbPolyline
 90
        2
 70
   129
 43
0.0
 10
117.1499999999999
 20
17.25000000000003
 42
0.9999999999999999
 10
114.8499999999999
 20
17.25000000000003
 42
0.9999999999999999
  0
LWPOLYLINE
  5
1AB
330
38B
100
AcDbEntity
  8
0_Outside
100
AcDbPolyline
 90
        2
 70
   129
 43
0.0
 10
133.8499999999999
 20
17.25000000000003
 42
0.9999999999999999
 10
136.1499999999999
 20
17.25000000000003
 42
0.9999999999999999
  0
LINE
  5
1B3
330
38B
100
AcDbEntity
  8
0_Outside
100
AcDbLine
 10
375.6715800782853
 20
20.10469138305351
 30
0.0
 11
361.1977795442891
 21
30.79922003858589
 31
0.0
  0
LINE
  5
1B4
330
38B
100
AcDbEntity
  8
0_Outside
100
AcDbLine
 10
357.1404331286177
 20
38.8419104079006
 30
0.0
 11
357.1404331286177
 21
106.3245364732111
 31
0.0
  0
LINE
  5
1B5
330
38B
100
AcDbEntity
  8
0_Outside
100
AcDbLine
 10
354.9884842791514
 20
111.3739324808352
 30
0.0
 11
334.9904046959274
 21
130.5745878830907
 31
0.0
  0
LINE
  5
1B6
330
38B
100
AcDbEntity
  8
0_Outside
100
AcDbLine
 10
328.4966958189218
 20
132.3290004153438
 30
0.0
 11
247.9947754021458
 21
112.8577577204277
 31
0.0
  0
LINE
  5
1B7
330
38B
100
AcDbEntity
  8
0_Outside
100
AcDbLine
 10
242.6404331286177
 20
106.0539491805507
 30
0.0
 11
242.6404331286177
 21
38.79096191627346
 31
0.0
  0
LINE
  5
1B8
330
38B
100
AcDbEntity
  8
0_Outside
100
AcDbLine
 10
238.6232640697127
 20
30.77811386266131
 30
0.0
 11
224.3002957719781
 21
20.08380176206182
 31
0.0
  0
LINE
  5
1B9
330
38B
100
AcDbEntity
  8
0_Outside
100
AcDbLine
 10
228.4882774307446
 20
7.474808124533283
 30
0.0
 11
371.5117225692553
 21
7.474808124533283
 31
0.0
  0
ARC
  5
1BA
330
38B
100
AcDbEntity
  8
0_Outside
100
AcDbCircle
 10
367.1404331286178
 20
38.8419104079006
 30
0.0
 40
10.0
100
AcDbArc
 50
180.0
 51
233.5397211297939
  0
ARC
  5
1BB
330
38B
100
AcDbEntity
  8
0_Outside
100
AcDbCircle
 10
232.6404331286177
 20
38.79096191627346
 30
0.0
 40
10.0
100
AcDbArc
 50
306.7470320277845
 51
0.0
1001
QCAD
1000
reversed:1
  0
ARC
  5
1BC
330
38B
100
AcDbEntity
  8
0_Outside
100
AcDbCircle
 10
371.5117225692553
 20
14.4748081245333
 30
0.0
 40
7.0
100
AcDbArc
 50
270.0
 51
53.53972112979422
  0
ARC
  5
1BD
330
38B
100
AcDbEntity
  8
0_Outside
100
AcDbCircle
 10
228.4882774307446
 20
14.47480812453328
 30
0.0
 40
7.0
100
AcDbArc
 50
126.7470320277843
 51
270.0
  0
ARC
  5
1BE
330
38B
100
AcDbEntity
  8
0_Outside
100
AcDbCircle
 10
330.1423535453937
 20
125.5251918754667
 30
0.0
 40
7.0
100
AcDbArc
 50
46.16541360198055
 51
103.5971615115809
  0
ARC
  5
1BF
330
38B
100
AcDbEntity
  8
0_Outside
100
AcDbCircle
 10
350.1404331286176
 20
106.3245364732111
 30
0.0
 40
7.0
100
AcDbArc
 50
0.0
 51
46.16541360198051
1001
QCAD
1000
reversed:1
  0
ARC
  5
1C0
330
38B
100
AcDbEntity
  8
0_Outside
100
AcDbCircle
 10
249.6404331286177
 20
106.0539491805507
 30
0.0
 40
7.0
100
AcDbArc
 50
103.5971615115809
 51
180.0
  0
LINE
  5
1C1
330
38B
100
AcDbEntity
  8
0_Outside
100
AcDbLine
 10
265.8267621286177
 20
103.687369066074
 30
0.0
 11
336.0261845952422
 21
103.687369066074
 31
0.0
  0
LINE
  5
1C2
330
38B
100
AcDbEntity
  8
0_Outside
100
AcDbLine
 10
343.0261845952421
 20
96.68736906607401
 30
0.0
 11
343.0261845952421
 21
42.93842951143327
 31
0.0
  0
LINE
  5
1C3
330
38B
100
AcDbEntity
  8
0_Outside
100
AcDbLine
 10
336.0261845952421
 20
35.93842951143327
 30
0.0
 11
265.8267621286178
 21
35.93842951143327
 31
0.0
  0
LINE
  5
1C4
330
38B
100
AcDbEntity
  8
0_Outside
100
AcDbLine
 10
258.8267621286177
 20
42.93842951143327
 30
0.0
 11
258.8267621286177
 21
96.68736906607401
 31
0.0
  0
ARC
  5
1C5
330
38B
100
AcDbEntity
  8
0_Outside
100
AcDbCircle
 10
336.0261845952422
 20
96.68736906607401
 30
0.0
 40
7.0
100
AcDbArc
 50
0.0
 51
90.0
1001
QCAD
1000
reversed:1
  0
ARC
  5
1C6
330
38B
100
AcDbEntity
  8
0_Outside
100
AcDbCircle
 10
336.0261845952421
 20
42.93842951143327
 30
0.0
 40
7.0
100
AcDbArc
 50
270.0
 51
0.0
1001
QCAD
1000
reversed:1
  0
ARC
  5
1C7
330
38B
100
AcDbEntity
  8
0_Outside
100
AcDbCircle
 10
265.8267621286178
 20
42.93842951143327
 30
0.0
 40
7.0
100
AcDbArc
 50
180.0
 51
270.0
1001
QCAD
1000
reversed:1
  0
ARC
  5
1C8
330
38B
100
AcDbEntity
  8
0_Outside
100
AcDbCircle
 10
265.8267621286177
 20
96.68736906607401
 30
0.0
 40
7.0
100
AcDbArc
 50
90.0
 51
180.0
1001
QCAD
1000
reversed:1
  0
MTEXT
  5
369
330
38B
100
AcDbEntity
  8
setup
100
AcDbMText
 10
10.0
 20
410.0
 30
0.0
 40
1744.8
 41
0.0
 46
0.0
 71
     1
 72
     1
  1
\FCourierCad|c0;\c0;\H50;WALLter\Pv0.8
  7
textstyle3
 73
     1
 44
1.0
  0
MTEXT
  5
36B
330
38B
100
AcDbEntity
  8
Engrave
100
AcDbMText
 10
-480.0
 20
100.0
 30
0.0
 40
50.0
 41
0.0
 46
0.0
 71
     1
 72
     1
  1
\FCourierCad|c0;\c0;laser Cut 
  7
textstyle3
 73
     1
 44
1.0
  0
MTEXT
  5
36C
330
38B
100
AcDbEntity
  8
Engrave
100
AcDbMText
 10
-480.0
 20
-100.0
 30
0.0
 40
50.0
 41
0.0
 46
0.0
 71
     1
 72
     1
  1
\FCourierCad|c0;\c0;Cnc 4mm
  7
textstyle3
 73
     1
 44
1.0
  0
MTEXT
  5
36D
330
38B
100
AcDbEntity
  8
Engrave
100
AcDbMText
 10
-480.0
 20
-300.0
 30
0.0
 40
50.0
 41
0.0
 46
0.0
 71
     1
 72
     1
  1
\FCourierCad|c0;\c0;Cnc 14mm\P
  7
textstyle3
 73
     1
 44
1.0
  0
VIEWPORT
  5
44A
330
387
100
AcDbEntity
 67
     1
  8
0
100
AcDbViewport
 10
128.5
 20
97.5
 30
0.0
 40
314.226
 41
222.18
 68
     1
 69
     1
 12
128.5
 22
97.5
 13
0.0
 23
0.0
 14
10.0
 24
10.0
 15
10.0
 25
10.0
 16
0.0
 26
0.0
 36
1.0
 17
0.0
 27
0.0
 37
0.0
 42
50.0
 43
0.0
 44
0.0
 45
222.18
 50
0.0
 51
0.0
 72
   100
 90
   557152
  1

281
     0
 71
     1
 74
     0
110
0.0
120
0.0
130
0.0
111
1.0
121
0.0
131
0.0
112
0.0
122
1.0
132
0.0
 79
     0
146
0.0
170
     0
 61
     5
348
39B
292
     1
282
     1
141
0.0
142
0.0
 63
   256
361
44B
  0
ENDSEC
  0
SECTION
  2
OBJECTS
  0
DICTIONARY
  5
379
330
0
100
AcDbDictionary
281
     1
  3
ACAD_DETAILVIEWSTYLE
350
454
  3
ACAD_GROUP
350
37A
  3
ACAD_LAYOUT
350
386
  3
ACAD_MATERIAL
350
3AF
  3
ACAD_MLEADERSTYLE
350
3C7
  3
ACAD_MLINESTYLE
350
383
  3
ACAD_PLOTSETTINGS
350
385
  3
ACAD_PLOTSTYLENAME
350
37B
  3
ACAD_SCALELIST
350
3B3
  3
ACAD_SECTIONVIEWSTYLE
350
455
  3
ACAD_TABLESTYLE
350
3C5
  3
ACAD_VISUALSTYLE
350
396
  3
ACDB_RECOMPOSE_DATA
350
451
  3
AcDbVariableDictionary
350
44D
  3
QCAD_OBJECTS
350
3CB
  0
SUN
  5
3C9
330
395
100
AcDbSun
 90
        1
290
     0
 63
     7
421
 16777215
 40
1.0
291
     1
 91
  2455826
 92
 54000000
292
     0
 70
     2
 71
   256
280
     1
  0
SUN
  5
44B
330
44A
100
AcDbSun
 90
        1
290
     0
 63
     7
421
 16777215
 40
1.0
291
     1
 91
  2455826
 92
 54000000
292
     0
 70
     2
 71
   256
280
     1
  0
DICTIONARY
  5
454
102
{ACAD_REACTORS
330
379
102
}
330
379
100
AcDbDictionary
281
     1
  0
DICTIONARY
  5
37A
102
{ACAD_REACTORS
330
379
102
}
330
379
100
AcDbDictionary
281
     1
  0
DICTIONARY
  5
386
102
{ACAD_REACTORS
330
379
102
}
330
379
100
AcDbDictionary
281
     1
  3
Layout1
350
38A
  3
Model
350
38E
  0
DICTIONARY
  5
3AF
102
{ACAD_REACTORS
330
379
102
}
330
379
100
AcDbDictionary
281
     1
  3
ByBlock
350
3B1
  3
ByLayer
350
3B0
  3
Global
350
3B2
  0
DICTIONARY
  5
3C7
102
{ACAD_REACTORS
330
379
102
}
330
379
100
AcDbDictionary
281
     1
  3
Standard
350
3C8
  0
DICTIONARY
  5
383
102
{ACAD_REACTORS
330
379
102
}
330
379
100
AcDbDictionary
281
     1
  3
Standard
350
384
  0
DICTIONARY
  5
385
102
{ACAD_REACTORS
330
379
102
}
330
379
100
AcDbDictionary
281
     1
  0
ACDBDICTIONARYWDFLT
  5
37B
102
{ACAD_REACTORS
330
379
102
}
330
379
100
AcDbDictionary
281
     1
  3
Normal
350
37C
100
AcDbDictionaryWithDefault
340
37C
  0
DICTIONARY
  5
3B3
102
{ACAD_REACTORS
330
379
102
}
330
379
100
AcDbDictionary
281
     1
  3
A0
350
3B4
  3
A1
350
3B5
  3
A2
350
3B6
  3
A3
350
3B7
  3
A4
350
3B8
  3
A5
350
3B9
  3
A6
350
3BA
  3
A7
350
3BB
  3
A8
350
3BC
  3
A9
350
3BD
  3
B1
350
3BE
  3
B2
350
3BF
  3
B3
350
3C0
  3
B4
350
3C1
  3
B5
350
3C2
  3
B6
350
3C3
  3
B7
350
3C4
  0
DICTIONARY
  5
455
102
{ACAD_REACTORS
330
379
102
}
330
379
100
AcDbDictionary
281
     1
  0
DICTIONARY
  5
3C5
102
{ACAD_REACTORS
330
379
102
}
330
379
100
AcDbDictionary
281
     1
  3
Standard
350
3C6
  0
DICTIONARY
  5
396
102
{ACAD_REACTORS
330
379
102
}
330
379
100
AcDbDictionary
281
     1
  3
2dWireframe
350
39B
  3
Basic
350
39E
  3
Brighten
350
3A2
  3
ColorChange
350
3A6
  3
Conceptual
350
3A0
  3
Dim
350
3A1
  3
EdgeColorOff
350
3A9
  3
Facepattern
350
3A5
  3
Flat
350
397
  3
FlatWithEdges
350
398
  3
Gouraud
350
399
  3
GouraudWithEdges
350
39A
  3
Hidden
350
39D
  3
JitterOff
350
3A7
  3
Linepattern
350
3A4
  3
OverhangOff
350
3A8
  3
Realistic
350
39F
  3
Shaded
350
3AE
  3
Shaded with edges
350
3AD
  3
Shades of Gray
350
3AA
  3
Sketchy
350
3AB
  3
Thicken
350
3A3
  3
Wireframe
350
39C
  3
X-Ray
350
3AC
  0
XRECORD
  5
451
102
{ACAD_REACTORS
330
379
102
}
330
379
100
AcDbXrecord
280
     1
 90
        1
330
3C6
  0
DICTIONARY
  5
44D
102
{ACAD_REACTORS
330
379
102
}
330
379
100
AcDbDictionary
281
     1
  3
CANNOSCALE
350
44E
  3
CMLEADERSTYLE
350
453
  3
CTABLESTYLE
350
452
  0
DICTIONARY
  5
3CB
102
{ACAD_REACTORS
330
379
102
}
330
379
100
AcDbDictionary
281
     1
  3
CamExport/ConfigV2
350
3CD
  3
ColorSettings/BackgroundColor
350
3CE
  3
ColorSettings/ColorMode
350
3CF
  3
Grid/DisplayGrid00
350
3D0
  3
Grid/DisplayGrid01
350
3D1
  3
Grid/DisplayGrid02
350
3D2
  3
Grid/DisplayGrid03
350
3D3
  3
Grid/GridSpacingX00
350
3D4
  3
Grid/GridSpacingX01
350
3D5
  3
Grid/GridSpacingX02
350
3D6
  3
Grid/GridSpacingX03
350
3D7
  3
Grid/GridSpacingY00
350
3D8
  3
Grid/GridSpacingY01
350
3D9
  3
Grid/GridSpacingY02
350
3DA
  3
Grid/GridSpacingY03
350
3DB
  3
Grid/IsometricGrid00
350
3DC
  3
Grid/IsometricGrid01
350
3DD
  3
Grid/IsometricGrid02
350
3DE
  3
Grid/IsometricGrid03
350
3DF
  3
Grid/IsometricProjection00
350
3E0
  3
Grid/IsometricProjection01
350
3E1
  3
Grid/IsometricProjection02
350
3E2
  3
Grid/IsometricProjection03
350
3E3
  3
Grid/MetaGridSpacingX00
350
3E4
  3
Grid/MetaGridSpacingX01
350
3E5
  3
Grid/MetaGridSpacingX02
350
3E6
  3
Grid/MetaGridSpacingX03
350
3E7
  3
Grid/MetaGridSpacingY00
350
3E8
  3
Grid/MetaGridSpacingY01
350
3E9
  3
Grid/MetaGridSpacingY02
350
3EA
  3
Grid/MetaGridSpacingY03
350
3EB
  3
MultiPageSettings/Columns
350
3EC
  3
MultiPageSettings/GlueMarginsBottom
350
3ED
  3
MultiPageSettings/GlueMarginsLeft
350
3EE
  3
MultiPageSettings/GlueMarginsRight
350
3EF
  3
MultiPageSettings/GlueMarginsTop
350
3F0
  3
MultiPageSettings/PrintCropMarks
350
3F1
  3
MultiPageSettings/Rows
350
3F2
  3
PageSettings/OffsetX
350
3F3
  3
PageSettings/OffsetY
350
3F4
  3
PageSettings/PageOrientation
350
3F5
  3
PageSettings/PaperHeight
350
3F6
  3
PageSettings/PaperWidth
350
3F7
  3
PageSettings/Scale
350
3F8
  3
PageSettings/ShowPaperBorders
350
3F9
  3
PageTagSettings/EnablePageTags
350
3FA
  3
PageTagSettings/TagAlignment
350
3FB
  3
PageTagSettings/TagFont
350
3FC
  3
PageTagSettings/TagPosition
350
3FD
  3
QCADVersion
350
3FE
  3
UnitSettings/PaperUnit
350
3FF
  3
ViewportCenter
350
400
  3
ViewportHeight
350
401
  3
ViewportWidth
350
402
  0
LAYOUT
  5
38A
102
{ACAD_REACTORS
330
386
102
}
330
386
100
AcDbPlotSettings
  1

  2
none_device
  4
ISO_A4_(210.00_x_297.00_MM)
  6

 40
7.5
 41
20.0
 42
7.5
 43
20.0
 44
210.0
 45
297.0
 46
0.0
 47
0.0
 48
0.0
 49
0.0
140
0.0
141
0.0
142
1.0
143
1.0
 70
   688
 72
     1
 73
     1
 74
     5
  7

 75
     0
 76
     0
 77
     2
 78
   300
147
1.0
148
0.0
149
0.0
100
AcDbLayout
  1
Layout1
 70
     1
 71
     0
 10
-20.0
 20
-7.5
 11
277.0
 21
202.5
 12
0.0
 22
0.0
 32
0.0
 14
0.0
 24
0.0
 34
0.0
 15
0.0
 25
0.0
 35
0.0
146
0.0
 13
0.0
 23
0.0
 33
0.0
 16
1.0
 26
0.0
 36
0.0
 17
0.0
 27
1.0
 37
0.0
 76
     0
330
387
331
44A
  0
LAYOUT
  5
38E
102
{ACAD_REACTORS
330
386
102
}
330
386
100
AcDbPlotSettings
  1

  2
none_device
  4
Letter_(8.50_x_11.00_Inches)
  6

 40
6.35
 41
6.35
 42
6.35000508
 43
6.35000508
 44
215.9
 45
279.4
 46
0.0
 47
0.0
 48
0.0
 49
0.0
140
0.0
141
0.0
142
1.0
143
1.0
 70
  1712
 72
     0
 73
     0
 74
     0
  7

 75
     0
 76
     0
 77
     2
 78
   300
147
1.0
148
0.0
149
0.0
100
AcDbLayout
  1
Model
 70
     1
 71
     0
 10
0.0
 20
0.0
 11
12.0
 21
9.0
 12
0.0
 22
0.0
 32
0.0
 14
-480.0
 24
-375.0
 34
0.0
 15
596.0780570715021
 25
410.0
 35
0.0
146
0.0
 13
0.0
 23
0.0
 33
0.0
 16
1.0
 26
0.0
 36
0.0
 17
0.0
 27
1.0
 37
0.0
 76
     0
330
38B
331
395
  0
MATERIAL
  5
3B1
102
{ACAD_REACTORS
330
3AF
102
}
330
3AF
100
AcDbMaterial
  1
ByBlock
 72
     1
 94
      127
  0
MATERIAL
  5
3B0
102
{ACAD_REACTORS
330
3AF
102
}
330
3AF
100
AcDbMaterial
  1
ByLayer
 72
     1
 94
      127
  0
MATERIAL
  5
3B2
102
{ACAD_REACTORS
330
3AF
102
}
330
3AF
100
AcDbMaterial
  1
Global
 72
     1
 94
      127
  0
MLEADERSTYLE
  5
3C8
102
{ACAD_REACTORS
330
3C7
102
}
330
3C7
100
AcDbMLeaderStyle
179
     2
170
     2
171
     1
172
     0
 90
        2
 40
0.0
 41
0.0
173
     1
 91
-1056964608
340
380
 92
       -2
290
     1
 42
0.09
291
     1
 43
0.36
  3
Standard
341
0
 44
0.18
300

342
37E
174
     1
178
     6
175
     1
176
     0
 93
-1056964608
 45
0.18
292
     0
297
     0
 46
0.18
343
0
 94
-1056964608
 47
1.0
 49
1.0
140
1.0
293
     1
141
0.0
294
     1
177
     0
142
1.0
295
     0
296
     0
143
0.125
271
     0
272
     9
273
     9
298
     0
  0
MLINESTYLE
  5
384
102
{ACAD_REACTORS
330
383
102
}
330
383
100
AcDbMlineStyle
  2
Standard
 70
     0
  3

 62
   256
 51
90.0
 52
90.0
 71
     2
 49
0.5
 62
   256
  6
BYLAYER
 49
-0.5
 62
   256
  6
BYLAYER
  0
ACDBPLACEHOLDER
  5
37C
102
{ACAD_REACTORS
330
37B
102
}
330
37B
  0
SCALE
  5
3B4
102
{ACAD_REACTORS
330
3B3
102
}
330
3B3
100
AcDbScale
 70
     0
300
1:1
140
1.0
141
1.0
290
     1
  0
SCALE
  5
3B5
102
{ACAD_REACTORS
330
3B3
102
}
330
3B3
100
AcDbScale
 70
     0
300
1/128" = 1'-0"
140
0.0078125
141
12.0
290
     0
  0
SCALE
  5
3B6
102
{ACAD_REACTORS
330
3B3
102
}
330
3B3
100
AcDbScale
 70
     0
300
1/64" = 1'-0"
140
0.015625
141
12.0
290
     0
  0
SCALE
  5
3B7
102
{ACAD_REACTORS
330
3B3
102
}
330
3B3
100
AcDbScale
 70
     0
300
1/32" = 1'-0"
140
0.03125
141
12.0
290
     0
  0
SCALE
  5
3B8
102
{ACAD_REACTORS
330
3B3
102
}
330
3B3
100
AcDbScale
 70
     0
300
1/16" = 1'-0"
140
0.0625
141
12.0
290
     0
  0
SCALE
  5
3B9
102
{ACAD_REACTORS
330
3B3
102
}
330
3B3
100
AcDbScale
 70
     0
300
3/32" = 1'-0"
140
0.09375
141
12.0
290
     0
  0
SCALE
  5
3BA
102
{ACAD_REACTORS
330
3B3
102
}
330
3B3
100
AcDbScale
 70
     0
300
1/8" = 1'-0"
140
0.125
141
12.0
290
     0
  0
SCALE
  5
3BB
102
{ACAD_REACTORS
330
3B3
102
}
330
3B3
100
AcDbScale
 70
     0
300
3/16" = 1'-0"
140
0.1875
141
12.0
290
     0
  0
SCALE
  5
3BC
102
{ACAD_REACTORS
330
3B3
102
}
330
3B3
100
AcDbScale
 70
     0
300
1/4" = 1'-0"
140
0.25
141
12.0
290
     0
  0
SCALE
  5
3BD
102
{ACAD_REACTORS
330
3B3
102
}
330
3B3
100
AcDbScale
 70
     0
300
3/8" = 1'-0"
140
0.375
141
12.0
290
     0
  0
SCALE
  5
3BE
102
{ACAD_REACTORS
330
3B3
102
}
330
3B3
100
AcDbScale
 70
     0
300
1/2" = 1'-0"
140
0.5
141
12.0
290
     0
  0
SCALE
  5
3BF
102
{ACAD_REACTORS
330
3B3
102
}
330
3B3
100
AcDbScale
 70
     0
300
3/4" = 1'-0"
140
0.75
141
12.0
290
     0
  0
SCALE
  5
3C0
102
{ACAD_REACTORS
330
3B3
102
}
330
3B3
100
AcDbScale
 70
     0
300
1" = 1'-0"
140
1.0
141
12.0
290
     0
  0
SCALE
  5
3C1
102
{ACAD_REACTORS
330
3B3
102
}
330
3B3
100
AcDbScale
 70
     0
300
1-1/2" = 1'-0"
140
1.5
141
12.0
290
     0
  0
SCALE
  5
3C2
102
{ACAD_REACTORS
330
3B3
102
}
330
3B3
100
AcDbScale
 70
     0
300
3" = 1'-0"
140
3.0
141
12.0
290
     0
  0
SCALE
  5
3C3
102
{ACAD_REACTORS
330
3B3
102
}
330
3B3
100
AcDbScale
 70
     0
300
6" = 1'-0"
140
6.0
141
12.0
290
     0
  0
SCALE
  5
3C4
102
{ACAD_REACTORS
330
3B3
102
}
330
3B3
100
AcDbScale
 70
     0
300
1'-0" = 1'-0"
140
12.0
141
12.0
290
     0
  0
TABLESTYLE
  5
3C6
102
{ACAD_REACTORS
330
3C5
102
}
102
{ACAD_XDICTIONARY
360
44F
102
}
330
3C5
100
AcDbTableStyle
  3
Standard
 70
     0
 71
     0
 40
0.06
 41
0.06
280
     0
281
     0
  7
Standard
140
0.18
170
     2
 62
     0
 63
   257
283
     0
 90
        4
 91
        0
  1

274
    -2
284
     1
 64
     0
275
    -2
285
     1
 65
     0
276
    -2
286
     1
 66
     0
277
    -2
287
     1
 67
     0
278
    -2
288
     1
 68
     0
279
    -2
289
     1
 69
     0
  7
Standard
140
0.25
170
     5
 62
     0
 63
   257
283
     0
 90
        4
 91
        0
  1

274
    -2
284
     1
 64
     0
275
    -2
285
     1
 65
     0
276
    -2
286
     1
 66
     0
277
    -2
287
     1
 67
     0
278
    -2
288
     1
 68
     0
279
    -2
289
     1
 69
     0
  7
Standard
140
0.18
170
     5
 62
     0
 63
   257
283
     0
 90
        4
 91
        0
  1

274
    -2
284
     1
 64
     0
275
    -2
285
     1
 65
     0
276
    -2
286
     1
 66
     0
277
    -2
287
     1
 67
     0
278
    -2
288
     1
 68
     0
279
    -2
289
     1
 69
     0
  0
VISUALSTYLE
  5
39B
102
{ACAD_REACTORS
330
396
102
}
330
396
100
AcDbVisualStyle
  2
2dWireframe
 70
     4
177
     3
291
     0
 70
    58
 90
        0
176
     1
 90
        2
176
     1
 90
        0
176
     1
 90
        0
176
     1
 40
0.6
176
     1
 40
30.0
176
     1
 62
     7
420
 16777215
176
     1
 90
        1
176
     1
 90
        4
176
     1
 62
     7
176
     1
 62
   257
176
     1
 90
        1
176
     1
 90
        1
176
     1
 40
1.0
176
     1
 90
        0
176
     1
 62
   257
176
     1
 40
1.0
176
     1
 90
        1
176
     1
 90
        6
176
     1
 90
        2
176
     1
 62
     7
176
     1
 90
        5
176
     1
 90
        0
176
     1
 90
        0
176
     1
290
     0
176
     1
 90
        1
176
     1
 40
0.0
176
     1
 90
        0
176
     1
290
     1
176
     1
290
     1
176
     1
290
     0
176
     1
290
     0
176
     1
290
     0
176
     1
290
     0
176
     1
290
     0
176
     1
290
     0
176
     1
290
     0
176
     1
 90
       50
176
     1
 40
0.0
176
     1
 40
1.0
176
     1
 90
        0
176
     1
 62
    18
420
        0
176
     1
 90
       50
176
     1
 90
        3
176
     1
 62
     5
420
      255
176
     1
290
     0
176
     1
 90
       50
176
     1
 90
       50
176
     1
 90
       50
176
     1
290
     0
176
     1
 90
       50
176
     1
 62
   256
176
     0
 40
1.0
176
     0
 90
        2
176
     1
  1
strokes_ogs.tif
176
     1
290
     0
176
     1
 40
1.0
176
     1
 40
1.0
176
     1
  0
VISUALSTYLE
  5
39E
102
{ACAD_REACTORS
330
396
102
}
330
396
100
AcDbVisualStyle
  2
Basic
 70
     7
177
     3
291
     1
 70
    58
 90
        1
176
     1
 90
        0
176
     1
 90
        1
176
     1
 90
        0
176
     1
 40
0.6
176
     1
 40
30.0
176
     1
 62
     7
420
 16777215
176
     1
 90
        0
176
     1
 90
        4
176
     1
 62
     7
176
     1
 62
   257
176
     1
 90
        1
176
     1
 90
        1
176
     1
 40
1.0
176
     1
 90
        8
176
     1
 62
     7
176
     1
 40
1.0
176
     1
 90
        1
176
     1
 90
        6
176
     1
 90
        2
176
     1
 62
     7
176
     1
 90
        5
176
     1
 90
        0
176
     1
 90
        0
176
     1
290
     0
176
     1
 90
        1
176
     1
 40
0.0
176
     1
 90
        0
176
     1
290
     0
176
     1
290
     1
176
     1
290
     1
176
     1
290
     0
176
     1
290
     0
176
     1
290
     0
176
     1
290
     0
176
     1
290
     0
176
     1
290
     0
176
     1
 90
       50
176
     1
 40
0.0
176
     1
 40
1.0
176
     1
 90
        0
176
     1
 62
    18
420
        0
176
     1
 90
       50
176
     1
 90
        3
176
     1
 62
     5
420
      255
176
     1
290
     0
176
     1
 90
       50
176
     1
 90
       50
176
     1
 90
       50
176
     1
290
     0
176
     1
 90
       50
176
     1
 62
   256
176
     0
 40
1.0
176
     0
 90
        2
176
     1
  1
strokes_ogs.tif
176
     1
290
     0
176
     1
 40
1.0
176
     1
 40
1.0
176
     1
  0
VISUALSTYLE
  5
3A2
102
{ACAD_REACTORS
330
396
102
}
330
396
100
AcDbVisualStyle
  2
Brighten
 70
    12
177
     3
291
     1
 70
    58
 90
        2
176
     1
 90
        2
176
     1
 90
        0
176
     1
 90
        0
176
     1
 40
0.6
176
     1
 40
30.0
176
     1
 62
     7
420
 16777215
176
     1
 90
        1
176
     1
 90
        4
176
     1
 62
     7
176
     1
 62
   257
176
     1
 90
        1
176
     1
 90
        1
176
     1
 40
1.0
176
     1
 90
        8
176
     1
 62
     7
176
     1
 40
1.0
176
     1
 90
        1
176
     1
 90
        6
176
     1
 90
        2
176
     1
 62
     7
176
     1
 90
        5
176
     1
 90
        0
176
     1
 90
        0
176
     1
290
     0
176
     1
 90
        1
176
     1
 40
50.0
176
     1
 90
        0
176
     1
290
     0
176
     1
290
     1
176
     1
290
     1
176
     1
290
     0
176
     1
290
     0
176
     1
290
     0
176
     1
290
     0
176
     1
290
     0
176
     1
290
     0
176
     1
 90
       50
176
     1
 40
0.0
176
     1
 40
1.0
176
     1
 90
        0
176
     1
 62
    18
420
        0
176
     1
 90
       50
176
     1
 90
        3
176
     1
 62
     5
420
      255
176
     1
290
     0
176
     1
 90
       50
176
     1
 90
       50
176
     1
 90
       50
176
     1
290
     0
176
     1
 90
       50
176
     1
 62
   256
176
     0
 40
1.0
176
     0
 90
        2
176
     1
  1
strokes_ogs.tif
176
     1
290
     0
176
     1
 40
1.0
176
     1
 40
1.0
176
     1
  0
VISUALSTYLE
  5
3A6
102
{ACAD_REACTORS
330
396
102
}
330
396
100
AcDbVisualStyle
  2
ColorChange
 70
    16
177
     3
291
     1
 70
    58
 90
        2
176
     1
 90
        2
176
     1
 90
        3
176
     1
 90
        0
176
     1
 40
0.6
176
     1
 40
30.0
176
     1
 62
     8
420
  8421504
176
     1
 90
        1
176
     1
 90
        4
176
     1
 62
     7
176
     1
 62
   257
176
     1
 90
        1
176
     1
 90
        1
176
     1
 40
1.0
176
     1
 90
        8
176
     1
 62
     8
420
  8421504
176
     1
 40
1.0
176
     1
 90
        1
176
     1
 90
        6
176
     1
 90
        2
176
     1
 62
     7
176
     1
 90
        5
176
     1
 90
        0
176
     1
 90
        0
176
     1
290
     0
176
     1
 90
        1
176
     1
 40
0.0
176
     1
 90
        0
176
     1
290
     0
176
     1
290
     1
176
     1
290
     1
176
     1
290
     0
176
     1
290
     0
176
     1
290
     0
176
     1
290
     0
176
     1
290
     0
176
     1
290
     0
176
     1
 90
       50
176
     1
 40
0.0
176
     1
 40
1.0
176
     1
 90
        0
176
     1
 62
    18
420
        0
176
     1
 90
       50
176
     1
 90
        3
176
     1
 62
     5
420
      255
176
     1
290
     0
176
     1
 90
       50
176
     1
 90
       50
176
     1
 90
       50
176
     1
290
     0
176
     1
 90
       50
176
     1
 62
   256
176
     0
 40
1.0
176
     0
 90
        2
176
     1
  1
strokes_ogs.tif
176
     1
290
     0
176
     1
 40
1.0
176
     1
 40
1.0
176
     1
  0
VISUALSTYLE
  5
3A0
102
{ACAD_REACTORS
330
396
102
}
330
396
100
AcDbVisualStyle
  2
Conceptual
 70
     9
177
     3
291
     0
 70
    58
 90
        3
176
     1
 90
        2
176
     1
 90
        0
176
     1
 90
        0
176
     1
 40
0.6
176
     1
 40
30.0
176
     1
 62
     7
420
 16777215
176
     1
 90
        2
176
     1
 90
        2
176
     1
 62
     7
176
     1
 62
   257
176
     1
 90
        1
176
     1
 90
        1
176
     1
 40
179.0
176
     1
 90
        8
176
     1
 62
     7
176
     1
 40
1.0
176
     1
 90
        1
176
     1
 90
        6
176
     1
 90
        2
176
     1
 62
     7
176
     1
 90
        3
176
     1
 90
        0
176
     1
 90
        0
176
     1
290
     0
176
     1
 90
        1
176
     1
 40
0.0
176
     1
 90
        0
176
     1
290
     0
176
     1
290
     1
176
     1
290
     1
176
     1
290
     0
176
     1
290
     0
176
     1
290
     0
176
     1
290
     0
176
     1
290
     0
176
     1
290
     0
176
     1
 90
       50
176
     1
 40
0.0
176
     1
 40
1.0
176
     1
 90
        0
176
     1
 62
    18
420
        0
176
     1
 90
       50
176
     1
 90
        3
176
     1
 62
     5
420
      255
176
     1
290
     0
176
     1
 90
       50
176
     1
 90
       50
176
     1
 90
       50
176
     1
290
     0
176
     1
 90
       50
176
     1
 62
   256
176
     0
 40
1.0
176
     0
 90
        2
176
     1
  1
strokes_ogs.tif
176
     1
290
     0
176
     1
 40
1.0
176
     1
 40
1.0
176
     1
  0
VISUALSTYLE
  5
3A1
102
{ACAD_REACTORS
330
396
102
}
330
396
100
AcDbVisualStyle
  2
Dim
 70
    11
177
     3
291
     1
 70
    58
 90
        2
176
     1
 90
        2
176
     1
 90
        0
176
     1
 90
        0
176
     1
 40
0.6
176
     1
 40
30.0
176
     1
 62
     7
420
 16777215
176
     1
 90
        1
176
     1
 90
        4
176
     1
 62
     7
176
     1
 62
   257
176
     1
 90
        1
176
     1
 90
        1
176
     1
 40
1.0
176
     1
 90
        8
176
     1
 62
     7
176
     1
 40
1.0
176
     1
 90
        1
176
     1
 90
        6
176
     1
 90
        2
176
     1
 62
     7
176
     1
 90
        5
176
     1
 90
        0
176
     1
 90
        0
176
     1
290
     0
176
     1
 90
        1
176
     1
 40
-50.0
176
     1
 90
        0
176
     1
290
     0
176
     1
290
     1
176
     1
290
     1
176
     1
290
     0
176
     1
290
     0
176
     1
290
     0
176
     1
290
     0
176
     1
290
     0
176
     1
290
     0
176
     1
 90
       50
176
     1
 40
0.0
176
     1
 40
1.0
176
     1
 90
        0
176
     1
 62
    18
420
        0
176
     1
 90
       50
176
     1
 90
        3
176
     1
 62
     5
420
      255
176
     1
290
     0
176
     1
 90
       50
176
     1
 90
       50
176
     1
 90
       50
176
     1
290
     0
176
     1
 90
       50
176
     1
 62
   256
176
     0
 40
1.0
176
     0
 90
        2
176
     1
  1
strokes_ogs.tif
176
     1
290
     0
176
     1
 40
1.0
176
     1
 40
1.0
176
     1
  0
VISUALSTYLE
  5
3A9
102
{ACAD_REACTORS
330
396
102
}
330
396
100
AcDbVisualStyle
  2
EdgeColorOff
 70
    22
177
     3
291
     1
 70
    58
 90
        2
176
     0
 90
        2
176
     0
 90
        0
176
     0
 90
        0
176
     0
 40
0.6
176
     0
 40
30.0
176
     0
 62
     7
420
 16777215
176
     0
 90
        1
176
     0
 90
        4
176
     0
 62
     7
176
     0
 62
   257
176
     0
 90
        1
176
     0
 90
        1
176
     0
 40
1.0
176
     0
 90
        8
176
     2
 62
     7
176
     0
 40
1.0
176
     0
 90
        1
176
     0
 90
        6
176
     0
 90
        2
176
     0
 62
     7
176
     0
 90
        5
176
     0
 90
        0
176
     0
 90
        0
176
     0
290
     0
176
     0
 90
        1
176
     0
 40
0.0
176
     0
 90
        0
176
     0
290
     0
176
     0
290
     1
176
     0
290
     1
176
     0
290
     0
176
     0
290
     0
176
     0
290
     0
176
     0
290
     0
176
     0
290
     0
176
     0
290
     0
176
     0
 90
       50
176
     0
 40
0.0
176
     0
 40
1.0
176
     0
 90
        0
176
     0
 62
    18
420
        0
176
     0
 90
       50
176
     0
 90
        3
176
     0
 62
     5
420
      255
176
     0
290
     0
176
     0
 90
       50
176
     0
 90
       50
176
     0
 90
       50
176
     0
290
     0
176
     0
 90
       50
176
     0
 62
   256
176
     0
 40
1.0
176
     0
 90
        2
176
     0
  1
strokes_ogs.tif
176
     0
290
     0
176
     0
 40
1.0
176
     0
 40
1.0
176
     0
  0
VISUALSTYLE
  5
3A5
102
{ACAD_REACTORS
330
396
102
}
330
396
100
AcDbVisualStyle
  2
Facepattern
 70
    15
177
     3
291
     1
 70
    58
 90
        2
176
     1
 90
        2
176
     1
 90
        0
176
     1
 90
        0
176
     1
 40
0.6
176
     1
 40
30.0
176
     1
 62
     7
420
 16777215
176
     1
 90
        1
176
     1
 90
        4
176
     1
 62
     7
176
     1
 62
   257
176
     1
 90
        1
176
     1
 90
        1
176
     1
 40
1.0
176
     1
 90
        8
176
     1
 62
     7
176
     1
 40
1.0
176
     1
 90
        1
176
     1
 90
        6
176
     1
 90
        2
176
     1
 62
     7
176
     1
 90
        5
176
     1
 90
        0
176
     1
 90
        0
176
     1
290
     0
176
     1
 90
        1
176
     1
 40
0.0
176
     1
 90
        0
176
     1
290
     0
176
     1
290
     1
176
     1
290
     1
176
     1
290
     0
176
     1
290
     0
176
     1
290
     0
176
     1
290
     0
176
     1
290
     0
176
     1
290
     0
176
     1
 90
       50
176
     1
 40
0.0
176
     1
 40
1.0
176
     1
 90
        0
176
     1
 62
    18
420
        0
176
     1
 90
       50
176
     1
 90
        3
176
     1
 62
     5
420
      255
176
     1
290
     0
176
     1
 90
       50
176
     1
 90
       50
176
     1
 90
       50
176
     1
290
     0
176
     1
 90
       50
176
     1
 62
   256
176
     0
 40
1.0
176
     0
 90
        2
176
     1
  1
strokes_ogs.tif
176
     1
290
     0
176
     1
 40
1.0
176
     1
 40
1.0
176
     1
  0
VISUALSTYLE
  5
397
102
{ACAD_REACTORS
330
396
102
}
330
396
100
AcDbVisualStyle
  2
Flat
 70
     0
177
     3
291
     1
 70
    58
 90
        2
176
     1
 90
        1
176
     1
 90
        1
176
     1
 90
        2
176
     1
 40
0.6
176
     1
 40
30.0
176
     1
 62
     7
420
 16777215
176
     1
 90
        0
176
     1
 90
        0
176
     1
 62
     7
176
     1
 62
   257
176
     1
 90
        1
176
     1
 90
        1
176
     1
 40
1.0
176
     1
 90
        8
176
     1
 62
     7
176
     1
 40
1.0
176
     1
 90
        1
176
     1
 90
        6
176
     1
 90
        2
176
     1
 62
     7
176
     1
 90
        5
176
     1
 90
        0
176
     1
 90
        0
176
     1
290
     0
176
     1
 90
       13
176
     1
 40
0.0
176
     1
 90
        0
176
     1
290
     0
176
     1
290
     1
176
     1
290
     1
176
     1
290
     0
176
     1
290
     0
176
     1
290
     0
176
     1
290
     0
176
     1
290
     0
176
     1
290
     0
176
     1
 90
       50
176
     1
 40
0.0
176
     1
 40
1.0
176
     1
 90
        0
176
     1
 62
    18
420
        0
176
     1
 90
       50
176
     1
 90
        3
176
     1
 62
     5
420
      255
176
     1
290
     0
176
     1
 90
       50
176
     1
 90
       50
176
     1
 90
       50
176
     1
290
     0
176
     1
 90
       50
176
     1
 62
   256
176
     0
 40
1.0
176
     0
 90
        2
176
     1
  1
strokes_ogs.tif
176
     1
290
     0
176
     1
 40
1.0
176
     1
 40
1.0
176
     1
  0
VISUALSTYLE
  5
398
102
{ACAD_REACTORS
330
396
102
}
330
396
100
AcDbVisualStyle
  2
FlatWithEdges
 70
     1
177
     3
291
     1
 70
    58
 90
        2
176
     1
 90
        1
176
     1
 90
        1
176
     1
 90
        2
176
     1
 40
0.6
176
     1
 40
30.0
176
     1
 62
     7
420
 16777215
176
     1
 90
        1
176
     1
 90
        0
176
     1
 62
     7
176
     1
 62
   257
176
     1
 90
        1
176
     1
 90
        1
176
     1
 40
1.0
176
     1
 90
        0
176
     1
 62
   257
176
     1
 40
1.0
176
     1
 90
        1
176
     1
 90
        6
176
     1
 90
        2
176
     1
 62
     7
176
     1
 90
        5
176
     1
 90
        0
176
     1
 90
        0
176
     1
290
     0
176
     1
 90
       13
176
     1
 40
0.0
176
     1
 90
        0
176
     1
290
     0
176
     1
290
     1
176
     1
290
     1
176
     1
290
     0
176
     1
290
     0
176
     1
290
     0
176
     1
290
     0
176
     1
290
     0
176
     1
290
     0
176
     1
 90
       50
176
     1
 40
0.0
176
     1
 40
1.0
176
     1
 90
        0
176
     1
 62
    18
420
        0
176
     1
 90
       50
176
     1
 90
        3
176
     1
 62
     5
420
      255
176
     1
290
     0
176
     1
 90
       50
176
     1
 90
       50
176
     1
 90
       50
176
     1
290
     0
176
     1
 90
       50
176
     1
 62
   256
176
     0
 40
1.0
176
     0
 90
        2
176
     1
  1
strokes_ogs.tif
176
     1
290
     0
176
     1
 40
1.0
176
     1
 40
1.0
176
     1
  0
VISUALSTYLE
  5
399
102
{ACAD_REACTORS
330
396
102
}
330
396
100
AcDbVisualStyle
  2
Gouraud
 70
     2
177
     3
291
     1
 70
    58
 90
        2
176
     1
 90
        2
176
     1
 90
        1
176
     1
 90
        2
176
     1
 40
0.6
176
     1
 40
30.0
176
     1
 62
     7
420
 16777215
176
     1
 90
        0
176
     1
 90
        0
176
     1
 62
     7
176
     1
 62
   257
176
     1
 90
        1
176
     1
 90
        1
176
     1
 40
1.0
176
     1
 90
        0
176
     1
 62
     7
176
     1
 40
1.0
176
     1
 90
        1
176
     1
 90
        6
176
     1
 90
        2
176
     1
 62
     7
176
     1
 90
        5
176
     1
 90
        0
176
     1
 90
        0
176
     1
290
     0
176
     1
 90
       13
176
     1
 40
0.0
176
     1
 90
        0
176
     1
290
     0
176
     1
290
     1
176
     1
290
     1
176
     1
290
     0
176
     1
290
     0
176
     1
290
     0
176
     1
290
     0
176
     1
290
     0
176
     1
290
     0
176
     1
 90
       50
176
     1
 40
0.0
176
     1
 40
1.0
176
     1
 90
        0
176
     1
 62
    18
420
        0
176
     1
 90
       50
176
     1
 90
        3
176
     1
 62
     5
420
      255
176
     1
290
     0
176
     1
 90
       50
176
     1
 90
       50
176
     1
 90
       50
176
     1
290
     0
176
     1
 90
       50
176
     1
 62
   256
176
     0
 40
1.0
176
     0
 90
        2
176
     1
  1
strokes_ogs.tif
176
     1
290
     0
176
     1
 40
1.0
176
     1
 40
1.0
176
     1
  0
VISUALSTYLE
  5
39A
102
{ACAD_REACTORS
330
396
102
}
330
396
100
AcDbVisualStyle
  2
GouraudWithEdges
 70
     3
177
     3
291
     1
 70
    58
 90
        2
176
     1
 90
        2
176
     1
 90
        1
176
     1
 90
        2
176
     1
 40
0.6
176
     1
 40
30.0
176
     1
 62
     7
420
 16777215
176
     1
 90
        1
176
     1
 90
        0
176
     1
 62
     7
176
     1
 62
   257
176
     1
 90
        1
176
     1
 90
        1
176
     1
 40
1.0
176
     1
 90
        0
176
     1
 62
   257
176
     1
 40
1.0
176
     1
 90
        1
176
     1
 90
        6
176
     1
 90
        2
176
     1
 62
     7
176
     1
 90
        5
176
     1
 90
        0
176
     1
 90
        0
176
     1
290
     0
176
     1
 90
       13
176
     1
 40
0.0
176
     1
 90
        0
176
     1
290
     0
176
     1
290
     1
176
     1
290
     1
176
     1
290
     0
176
     1
290
     0
176
     1
290
     0
176
     1
290
     0
176
     1
290
     0
176
     1
290
     0
176
     1
 90
       50
176
     1
 40
0.0
176
     1
 40
1.0
176
     1
 90
        0
176
     1
 62
    18
420
        0
176
     1
 90
       50
176
     1
 90
        3
176
     1
 62
     5
420
      255
176
     1
290
     0
176
     1
 90
       50
176
     1
 90
       50
176
     1
 90
       50
176
     1
290
     0
176
     1
 90
       50
176
     1
 62
   256
176
     0
 40
1.0
176
     0
 90
        2
176
     1
  1
strokes_ogs.tif
176
     1
290
     0
176
     1
 40
1.0
176
     1
 40
1.0
176
     1
  0
VISUALSTYLE
  5
39D
102
{ACAD_REACTORS
330
396
102
}
330
396
100
AcDbVisualStyle
  2
Hidden
 70
     6
177
     3
291
     0
 70
    58
 90
        1
176
     1
 90
        2
176
     1
 90
        2
176
     1
 90
        0
176
     1
 40
0.6
176
     1
 40
30.0
176
     1
 62
     7
420
 16777215
176
     1
 90
        2
176
     1
 90
        2
176
     1
 62
     7
176
     1
 62
   257
176
     1
 90
        2
176
     1
 90
        1
176
     1
 40
40.0
176
     1
 90
        0
176
     1
 62
   257
176
     1
 40
1.0
176
     1
 90
        1
176
     1
 90
        6
176
     1
 90
        2
176
     1
 62
     7
176
     1
 90
        3
176
     1
 90
        0
176
     1
 90
        0
176
     1
290
     0
176
     1
 90
        1
176
     1
 40
0.0
176
     1
 90
        0
176
     1
290
     0
176
     1
290
     1
176
     1
290
     1
176
     1
290
     0
176
     1
290
     0
176
     1
290
     0
176
     1
290
     0
176
     1
290
     0
176
     1
290
     0
176
     1
 90
       50
176
     1
 40
0.0
176
     1
 40
1.0
176
     1
 90
        0
176
     1
 62
    18
420
        0
176
     1
 90
       50
176
     1
 90
        3
176
     1
 62
     5
420
      255
176
     1
290
     0
176
     1
 90
       50
176
     1
 90
       50
176
     1
 90
       50
176
     1
290
     0
176
     1
 90
       50
176
     1
 62
   256
176
     0
 40
1.0
176
     0
 90
        2
176
     1
  1
strokes_ogs.tif
176
     1
290
     0
176
     1
 40
1.0
176
     1
 40
1.0
176
     1
  0
VISUALSTYLE
  5
3A7
102
{ACAD_REACTORS
330
396
102
}
330
396
100
AcDbVisualStyle
  2
JitterOff
 70
    20
177
     3
291
     1
 70
    58
 90
        2
176
     0
 90
        2
176
     0
 90
        0
176
     0
 90
        0
176
     0
 40
0.6
176
     0
 40
30.0
176
     0
 62
     7
420
 16777215
176
     0
 90
        1
176
     0
 90
        4
176
     0
 62
     7
176
     0
 62
   257
176
     0
 90
        1
176
     0
 90
        1
176
     0
 40
1.0
176
     0
 90
       10
176
     2
 62
     7
176
     0
 40
1.0
176
     0
 90
        1
176
     0
 90
        6
176
     0
 90
        2
176
     0
 62
     7
176
     0
 90
        5
176
     0
 90
        0
176
     0
 90
        0
176
     0
290
     0
176
     0
 90
        1
176
     0
 40
0.0
176
     0
 90
        0
176
     0
290
     0
176
     0
290
     1
176
     0
290
     1
176
     0
290
     0
176
     0
290
     0
176
     0
290
     0
176
     0
290
     0
176
     0
290
     0
176
     0
290
     0
176
     0
 90
       50
176
     0
 40
0.0
176
     0
 40
1.0
176
     0
 90
        0
176
     0
 62
    18
420
        0
176
     0
 90
       50
176
     0
 90
        3
176
     0
 62
     5
420
      255
176
     0
290
     0
176
     0
 90
       50
176
     0
 90
       50
176
     0
 90
       50
176
     0
290
     0
176
     0
 90
       50
176
     0
 62
   256
176
     0
 40
1.0
176
     0
 90
        2
176
     0
  1
strokes_ogs.tif
176
     0
290
     0
176
     0
 40
1.0
176
     0
 40
1.0
176
     0
  0
VISUALSTYLE
  5
3A4
102
{ACAD_REACTORS
330
396
102
}
330
396
100
AcDbVisualStyle
  2
Linepattern
 70
    14
177
     3
291
     1
 70
    58
 90
        2
176
     1
 90
        2
176
     1
 90
        0
176
     1
 90
        0
176
     1
 40
0.6
176
     1
 40
30.0
176
     1
 62
     7
420
 16777215
176
     1
 90
        1
176
     1
 90
        4
176
     1
 62
     7
176
     1
 62
   257
176
     1
 90
        7
176
     1
 90
        7
176
     1
 40
1.0
176
     1
 90
        8
176
     1
 62
     7
176
     1
 40
1.0
176
     1
 90
        1
176
     1
 90
        6
176
     1
 90
        2
176
     1
 62
     7
176
     1
 90
        5
176
     1
 90
        0
176
     1
 90
        0
176
     1
290
     0
176
     1
 90
        1
176
     1
 40
0.0
176
     1
 90
        0
176
     1
290
     0
176
     1
290
     1
176
     1
290
     1
176
     1
290
     0
176
     1
290
     0
176
     1
290
     0
176
     1
290
     0
176
     1
290
     0
176
     1
290
     0
176
     1
 90
       50
176
     1
 40
0.0
176
     1
 40
1.0
176
     1
 90
        0
176
     1
 62
    18
420
        0
176
     1
 90
       50
176
     1
 90
        3
176
     1
 62
     5
420
      255
176
     1
290
     0
176
     1
 90
       50
176
     1
 90
       50
176
     1
 90
       50
176
     1
290
     0
176
     1
 90
       50
176
     1
 62
   256
176
     0
 40
1.0
176
     0
 90
        2
176
     1
  1
strokes_ogs.tif
176
     1
290
     0
176
     1
 40
1.0
176
     1
 40
1.0
176
     1
  0
VISUALSTYLE
  5
3A8
102
{ACAD_REACTORS
330
396
102
}
330
396
100
AcDbVisualStyle
  2
OverhangOff
 70
    21
177
     3
291
     1
 70
    58
 90
        2
176
     0
 90
        2
176
     0
 90
        0
176
     0
 90
        0
176
     0
 40
0.6
176
     0
 40
30.0
176
     0
 62
     7
420
 16777215
176
     0
 90
        1
176
     0
 90
        4
176
     0
 62
     7
176
     0
 62
   257
176
     0
 90
        1
176
     0
 90
        1
176
     0
 40
1.0
176
     0
 90
        9
176
     2
 62
     7
176
     0
 40
1.0
176
     0
 90
        1
176
     0
 90
        6
176
     0
 90
        2
176
     0
 62
     7
176
     0
 90
        5
176
     0
 90
        0
176
     0
 90
        0
176
     0
290
     0
176
     0
 90
        1
176
     0
 40
0.0
176
     0
 90
        0
176
     0
290
     0
176
     0
290
     1
176
     0
290
     1
176
     0
290
     0
176
     0
290
     0
176
     0
290
     0
176
     0
290
     0
176
     0
290
     0
176
     0
290
     0
176
     0
 90
       50
176
     0
 40
0.0
176
     0
 40
1.0
176
     0
 90
        0
176
     0
 62
    18
420
        0
176
     0
 90
       50
176
     0
 90
        3
176
     0
 62
     5
420
      255
176
     0
290
     0
176
     0
 90
       50
176
     0
 90
       50
176
     0
 90
       50
176
     0
290
     0
176
     0
 90
       50
176
     0
 62
   256
176
     0
 40
1.0
176
     0
 90
        2
176
     0
  1
strokes_ogs.tif
176
     0
290
     0
176
     0
 40
1.0
176
     0
 40
1.0
176
     0
  0
VISUALSTYLE
  5
39F
102
{ACAD_REACTORS
330
396
102
}
330
396
100
AcDbVisualStyle
  2
Realistic
 70
     8
177
     3
291
     0
 70
    58
 90
        2
176
     1
 90
        3
176
     1
 90
        0
176
     1
 90
        2
176
     1
 40
0.6
176
     1
 40
30.0
176
     1
 62
     7
420
 16777215
176
     1
 90
        0
176
     1
 90
        0
176
     1
 62
     7
176
     1
 62
   257
176
     1
 90
        1
176
     1
 90
        1
176
     1
 40
1.0
176
     1
 90
        8
176
     1
 62
   257
176
     1
 40
1.0
176
     1
 90
        1
176
     1
 90
        6
176
     1
 90
        2
176
     1
 62
     7
176
     1
 90
        3
176
     1
 90
        0
176
     1
 90
        0
176
     1
290
     0
176
     1
 90
       13
176
     1
 40
0.0
176
     1
 90
        0
176
     1
290
     0
176
     1
290
     1
176
     1
290
     1
176
     1
290
     0
176
     1
290
     0
176
     1
290
     0
176
     1
290
     0
176
     1
290
     0
176
     1
290
     0
176
     1
 90
       50
176
     1
 40
0.0
176
     1
 40
1.0
176
     1
 90
        0
176
     1
 62
    18
420
        0
176
     1
 90
       50
176
     1
 90
        3
176
     1
 62
     5
420
      255
176
     1
290
     0
176
     1
 90
       50
176
     1
 90
       50
176
     1
 90
       50
176
     1
290
     0
176
     1
 90
       50
176
     1
 62
   256
176
     0
 40
1.0
176
     0
 90
        2
176
     1
  1
strokes_ogs.tif
176
     1
290
     0
176
     1
 40
1.0
176
     1
 40
1.0
176
     1
  0
VISUALSTYLE
  5
3AE
102
{ACAD_REACTORS
330
396
102
}
330
396
100
AcDbVisualStyle
  2
Shaded
 70
    27
177
     3
291
     0
 70
    58
 90
        2
176
     1
 90
        2
176
     1
 90
        1
176
     1
 90
        2
176
     1
 40
0.6
176
     1
 40
30.0
176
     1
 62
     7
420
 16777215
176
     1
 90
        0
176
     1
 90
        4
176
     1
 62
     7
176
     1
 62
   257
176
     1
 90
        1
176
     1
 90
        1
176
     1
 40
1.0
176
     1
 90
        8
176
     1
 62
   257
176
     1
 40
1.0
176
     1
 90
        1
176
     1
 90
        6
176
     1
 90
        2
176
     1
 62
     8
420
  7895160
176
     1
 90
        3
176
     1
 90
        0
176
     1
 90
        0
176
     1
290
     0
176
     1
 90
        5
176
     1
 40
0.0
176
     1
 90
        0
176
     1
290
     0
176
     1
290
     1
176
     1
290
     1
176
     1
290
     0
176
     1
290
     0
176
     1
290
     0
176
     1
290
     0
176
     1
290
     0
176
     1
290
     0
176
     1
 90
       50
176
     1
 40
0.0
176
     1
 40
1.0
176
     1
 90
        0
176
     1
 62
    18
420
        0
176
     1
 90
       50
176
     1
 90
        3
176
     1
 62
     5
420
      255
176
     1
290
     0
176
     1
 90
       50
176
     1
 90
       50
176
     1
 90
       50
176
     1
290
     0
176
     1
 90
       50
176
     1
 62
   256
176
     0
 40
1.0
176
     0
 90
        2
176
     1
  1
strokes_ogs.tif
176
     1
290
     0
176
     1
 40
1.0
176
     1
 40
1.0
176
     1
  0
VISUALSTYLE
  5
3AD
102
{ACAD_REACTORS
330
396
102
}
330
396
100
AcDbVisualStyle
  2
Shaded with edges
 70
    26
177
     3
291
     0
 70
    58
 90
        2
176
     1
 90
        2
176
     1
 90
        1
176
     1
 90
        2
176
     1
 40
0.6
176
     1
 40
30.0
176
     1
 62
     7
420
 16777215
176
     1
 90
        1
176
     1
 90
       10
176
     1
 62
     7
176
     1
 62
   257
176
     1
 90
        2
176
     1
 90
        1
176
     1
 40
1.0
176
     1
 90
        8
176
     1
 62
   257
176
     1
 40
1.0
176
     1
 90
        1
176
     1
 90
        6
176
     1
 90
        2
176
     1
 62
     7
176
     1
 90
        3
176
     1
 90
        0
176
     1
 90
        0
176
     1
290
     0
176
     1
 90
        5
176
     1
 40
0.0
176
     1
 90
        0
176
     1
290
     0
176
     1
290
     1
176
     1
290
     1
176
     1
290
     0
176
     1
290
     0
176
     1
290
     0
176
     1
290
     0
176
     1
290
     0
176
     1
290
     0
176
     1
 90
       50
176
     1
 40
0.0
176
     1
 40
1.0
176
     1
 90
        0
176
     1
 62
    18
420
        0
176
     1
 90
       50
176
     1
 90
        3
176
     1
 62
     5
420
      255
176
     1
290
     0
176
     1
 90
       50
176
     1
 90
       50
176
     1
 90
       50
176
     1
290
     0
176
     1
 90
       50
176
     1
 62
   256
176
     0
 40
1.0
176
     0
 90
        2
176
     1
  1
strokes_ogs.tif
176
     1
290
     0
176
     1
 40
1.0
176
     1
 40
1.0
176
     1
  0
VISUALSTYLE
  5
3AA
102
{ACAD_REACTORS
330
396
102
}
330
396
100
AcDbVisualStyle
  2
Shades of Gray
 70
    23
177
     3
291
     0
 70
    58
 90
        2
176
     1
 90
        2
176
     1
 90
        3
176
     1
 90
        0
176
     1
 40
0.6
176
     1
 40
30.0
176
     1
 62
     7
420
 16777215
176
     1
 90
        2
176
     1
 90
        2
176
     1
 62
     7
176
     1
 62
     7
176
     1
 90
        1
176
     1
 90
        1
176
     1
 40
40.0
176
     1
 90
        8
176
     1
 62
     7
176
     1
 40
1.0
176
     1
 90
        1
176
     1
 90
        6
176
     1
 90
        2
176
     1
 62
     7
176
     1
 90
        3
176
     1
 90
        0
176
     1
 90
        0
176
     1
290
     0
176
     1
 90
        1
176
     1
 40
0.0
176
     1
 90
        0
176
     1
290
     0
176
     1
290
     1
176
     1
290
     1
176
     1
290
     0
176
     1
290
     0
176
     1
290
     0
176
     1
290
     0
176
     1
290
     0
176
     1
290
     0
176
     1
 90
       50
176
     1
 40
0.0
176
     1
 40
1.0
176
     1
 90
        0
176
     1
 62
    18
420
        0
176
     1
 90
       50
176
     1
 90
        3
176
     1
 62
     5
420
      255
176
     1
290
     0
176
     1
 90
       50
176
     1
 90
       50
176
     1
 90
       50
176
     1
290
     0
176
     1
 90
       50
176
     1
 62
   256
176
     0
 40
1.0
176
     0
 90
        2
176
     1
  1
strokes_ogs.tif
176
     1
290
     0
176
     1
 40
1.0
176
     1
 40
1.0
176
     1
  0
VISUALSTYLE
  5
3AB
102
{ACAD_REACTORS
330
396
102
}
330
396
100
AcDbVisualStyle
  2
Sketchy
 70
    24
177
     3
291
     0
 70
    58
 90
        1
176
     1
 90
        2
176
     1
 90
        2
176
     1
 90
        0
176
     1
 40
0.6
176
     1
 40
30.0
176
     1
 62
     7
420
 16777215
176
     1
 90
        2
176
     1
 90
        2
176
     1
 62
     7
176
     1
 62
     7
176
     1
 90
        1
176
     1
 90
        1
176
     1
 40
40.0
176
     1
 90
       11
176
     1
 62
     7
176
     1
 40
1.0
176
     1
 90
        1
176
     1
 90
        6
176
     1
 90
        2
176
     1
 62
     7
176
     1
 90
        6
176
     1
 90
        0
176
     1
 90
        0
176
     1
290
     0
176
     1
 90
        1
176
     1
 40
0.0
176
     1
 90
        0
176
     1
290
     0
176
     1
290
     1
176
     1
290
     1
176
     1
290
     0
176
     1
290
     0
176
     1
290
     0
176
     1
290
     0
176
     1
290
     0
176
     1
290
     0
176
     1
 90
       50
176
     1
 40
0.0
176
     1
 40
1.0
176
     1
 90
        0
176
     1
 62
    18
420
        0
176
     1
 90
       50
176
     1
 90
        3
176
     1
 62
     5
420
      255
176
     1
290
     0
176
     1
 90
       50
176
     1
 90
       50
176
     1
 90
       50
176
     1
290
     0
176
     1
 90
       50
176
     1
 62
   256
176
     0
 40
1.0
176
     0
 90
        2
176
     1
  1
strokes_ogs.tif
176
     1
290
     0
176
     1
 40
1.0
176
     1
 40
1.0
176
     1
  0
VISUALSTYLE
  5
3A3
102
{ACAD_REACTORS
330
396
102
}
330
396
100
AcDbVisualStyle
  2
Thicken
 70
    13
177
     3
291
     1
 70
    58
 90
        2
176
     1
 90
        2
176
     1
 90
        0
176
     1
 90
        0
176
     1
 40
0.6
176
     1
 40
30.0
176
     1
 62
     7
420
 16777215
176
     1
 90
        1
176
     1
 90
        4
176
     1
 62
     7
176
     1
 62
   257
176
     1
 90
        1
176
     1
 90
        1
176
     1
 40
1.0
176
     1
 90
       12
176
     1
 62
     7
176
     1
 40
1.0
176
     1
 90
        1
176
     1
 90
        6
176
     1
 90
        2
176
     1
 62
     7
176
     1
 90
        5
176
     1
 90
        0
176
     1
 90
        0
176
     1
290
     0
176
     1
 90
        1
176
     1
 40
0.0
176
     1
 90
        0
176
     1
290
     0
176
     1
290
     1
176
     1
290
     1
176
     1
290
     0
176
     1
290
     0
176
     1
290
     0
176
     1
290
     0
176
     1
290
     0
176
     1
290
     0
176
     1
 90
       50
176
     1
 40
0.0
176
     1
 40
1.0
176
     1
 90
        0
176
     1
 62
    18
420
        0
176
     1
 90
       50
176
     1
 90
        3
176
     1
 62
     5
420
      255
176
     1
290
     0
176
     1
 90
       50
176
     1
 90
       50
176
     1
 90
       50
176
     1
290
     0
176
     1
 90
       50
176
     1
 62
   256
176
     0
 40
1.0
176
     0
 90
        2
176
     1
  1
strokes_ogs.tif
176
     1
290
     0
176
     1
 40
1.0
176
     1
 40
1.0
176
     1
  0
VISUALSTYLE
  5
39C
102
{ACAD_REACTORS
330
396
102
}
330
396
100
AcDbVisualStyle
  2
Wireframe
 70
     5
177
     3
291
     0
 70
    58
 90
        0
176
     1
 90
        2
176
     1
 90
        0
176
     1
 90
        0
176
     1
 40
0.6
176
     1
 40
30.0
176
     1
 62
     7
420
 16777215
176
     1
 90
        1
176
     1
 90
        4
176
     1
 62
     7
176
     1
 62
   257
176
     1
 90
        1
176
     1
 90
        1
176
     1
 40
1.0
176
     1
 90
        0
176
     1
 62
   257
176
     1
 40
1.0
176
     1
 90
        1
176
     1
 90
        6
176
     1
 90
        2
176
     1
 62
     7
176
     1
 90
        3
176
     1
 90
        0
176
     1
 90
        0
176
     1
290
     0
176
     1
 90
        1
176
     1
 40
0.0
176
     1
 90
        0
176
     1
290
     0
176
     1
290
     1
176
     1
290
     1
176
     1
290
     0
176
     1
290
     0
176
     1
290
     0
176
     1
290
     0
176
     1
290
     0
176
     1
290
     0
176
     1
 90
       50
176
     1
 40
0.0
176
     1
 40
1.0
176
     1
 90
        0
176
     1
 62
    18
420
        0
176
     1
 90
       50
176
     1
 90
        3
176
     1
 62
     5
420
      255
176
     1
290
     0
176
     1
 90
       50
176
     1
 90
       50
176
     1
 90
       50
176
     1
290
     0
176
     1
 90
       50
176
     1
 62
   256
176
     0
 40
1.0
176
     0
 90
        2
176
     1
  1
strokes_ogs.tif
176
     1
290
     0
176
     1
 40
1.0
176
     1
 40
1.0
176
     1
  0
VISUALSTYLE
  5
3AC
102
{ACAD_REACTORS
330
396
102
}
330
396
100
AcDbVisualStyle
  2
X-Ray
 70
    25
177
     3
291
     0
 70
    58
 90
        2
176
     1
 90
        2
176
     1
 90
        1
176
     1
 90
        1
176
     1
 40
0.5
176
     1
 40
30.0
176
     1
 62
     7
420
 16777215
176
     1
 90
        1
176
     1
 90
        0
176
     1
 62
     7
176
     1
 62
   257
176
     1
 90
        1
176
     1
 90
        1
176
     1
 40
1.0
176
     1
 90
        8
176
     1
 62
     7
176
     1
 40
1.0
176
     1
 90
        1
176
     1
 90
        6
176
     1
 90
        2
176
     1
 62
     7
176
     1
 90
        3
176
     1
 90
        0
176
     1
 90
        0
176
     1
290
     0
176
     1
 90
       13
176
     1
 40
0.0
176
     1
 90
        0
176
     1
290
     0
176
     1
290
     1
176
     1
290
     1
176
     1
290
     0
176
     1
290
     0
176
     1
290
     0
176
     1
290
     0
176
     1
290
     0
176
     1
290
     0
176
     1
 90
       50
176
     1
 40
0.0
176
     1
 40
1.0
176
     1
 90
        0
176
     1
 62
    18
420
        0
176
     1
 90
       50
176
     1
 90
        3
176
     1
 62
     5
420
      255
176
     1
290
     0
176
     1
 90
       50
176
     1
 90
       50
176
     1
 90
       50
176
     1
290
     0
176
     1
 90
       50
176
     1
 62
   256
176
     0
 40
1.0
176
     0
 90
        2
176
     1
  1
strokes_ogs.tif
176
     1
290
     0
176
     1
 40
1.0
176
     1
 40
1.0
176
     1
  0
DICTIONARYVAR
  5
44E
102
{ACAD_REACTORS
330
44D
102
}
330
44D
100
DictionaryVariables
280
     0
  1
1:1
  0
DICTIONARYVAR
  5
453
102
{ACAD_REACTORS
330
44D
102
}
330
44D
100
DictionaryVariables
280
     0
  1
Standard
  0
DICTIONARYVAR
  5
452
102
{ACAD_REACTORS
330
44D
102
}
330
44D
100
DictionaryVariables
280
     0
  1
Standard
  0
XRECORD
  5
3CD
102
{ACAD_REACTORS
330
3CB
102
}
330
3CB
100
AcDbXrecord
280
     1
1000
GCodeMM
  0
XRECORD
  5
3CE
102
{ACAD_REACTORS
330
3CB
102
}
330
3CB
100
AcDbXrecord
280
     1
1000
#ffffff
  0
XRECORD
  5
3CF
102
{ACAD_REACTORS
330
3CB
102
}
330
3CB
100
AcDbXrecord
280
     1
1000
FullColor
  0
XRECORD
  5
3D0
102
{ACAD_REACTORS
330
3CB
102
}
330
3CB
100
AcDbXrecord
280
     1
290
     1
  0
XRECORD
  5
3D1
102
{ACAD_REACTORS
330
3CB
102
}
330
3CB
100
AcDbXrecord
280
     1
290
     1
  0
XRECORD
  5
3D2
102
{ACAD_REACTORS
330
3CB
102
}
330
3CB
100
AcDbXrecord
280
     1
290
     1
  0
XRECORD
  5
3D3
102
{ACAD_REACTORS
330
3CB
102
}
330
3CB
100
AcDbXrecord
280
     1
290
     1
  0
XRECORD
  5
3D4
102
{ACAD_REACTORS
330
3CB
102
}
330
3CB
100
AcDbXrecord
280
     1
1000
auto
  0
XRECORD
  5
3D5
102
{ACAD_REACTORS
330
3CB
102
}
330
3CB
100
AcDbXrecord
280
     1
1000
auto
  0
XRECORD
  5
3D6
102
{ACAD_REACTORS
330
3CB
102
}
330
3CB
100
AcDbXrecord
280
     1
1000
auto
  0
XRECORD
  5
3D7
102
{ACAD_REACTORS
330
3CB
102
}
330
3CB
100
AcDbXrecord
280
     1
1000
auto
  0
XRECORD
  5
3D8
102
{ACAD_REACTORS
330
3CB
102
}
330
3CB
100
AcDbXrecord
280
     1
1000
auto
  0
XRECORD
  5
3D9
102
{ACAD_REACTORS
330
3CB
102
}
330
3CB
100
AcDbXrecord
280
     1
1000
auto
  0
XRECORD
  5
3DA
102
{ACAD_REACTORS
330
3CB
102
}
330
3CB
100
AcDbXrecord
280
     1
1000
auto
  0
XRECORD
  5
3DB
102
{ACAD_REACTORS
330
3CB
102
}
330
3CB
100
AcDbXrecord
280
     1
1000
auto
  0
XRECORD
  5
3DC
102
{ACAD_REACTORS
330
3CB
102
}
330
3CB
100
AcDbXrecord
280
     1
290
     0
  0
XRECORD
  5
3DD
102
{ACAD_REACTORS
330
3CB
102
}
330
3CB
100
AcDbXrecord
280
     1
290
     0
  0
XRECORD
  5
3DE
102
{ACAD_REACTORS
330
3CB
102
}
330
3CB
100
AcDbXrecord
280
     1
290
     0
  0
XRECORD
  5
3DF
102
{ACAD_REACTORS
330
3CB
102
}
330
3CB
100
AcDbXrecord
280
     1
290
     0
  0
XRECORD
  5
3E0
102
{ACAD_REACTORS
330
3CB
102
}
330
3CB
100
AcDbXrecord
280
     1
 90
    65537
  0
XRECORD
  5
3E1
102
{ACAD_REACTORS
330
3CB
102
}
330
3CB
100
AcDbXrecord
280
     1
 90
    65537
  0
XRECORD
  5
3E2
102
{ACAD_REACTORS
330
3CB
102
}
330
3CB
100
AcDbXrecord
280
     1
 90
    65537
  0
XRECORD
  5
3E3
102
{ACAD_REACTORS
330
3CB
102
}
330
3CB
100
AcDbXrecord
280
     1
 90
    65537
  0
XRECORD
  5
3E4
102
{ACAD_REACTORS
330
3CB
102
}
330
3CB
100
AcDbXrecord
280
     1
1000
auto
  0
XRECORD
  5
3E5
102
{ACAD_REACTORS
330
3CB
102
}
330
3CB
100
AcDbXrecord
280
     1
1000
auto
  0
XRECORD
  5
3E6
102
{ACAD_REACTORS
330
3CB
102
}
330
3CB
100
AcDbXrecord
280
     1
1000
auto
  0
XRECORD
  5
3E7
102
{ACAD_REACTORS
330
3CB
102
}
330
3CB
100
AcDbXrecord
280
     1
1000
auto
  0
XRECORD
  5
3E8
102
{ACAD_REACTORS
330
3CB
102
}
330
3CB
100
AcDbXrecord
280
     1
1000
auto
  0
XRECORD
  5
3E9
102
{ACAD_REACTORS
330
3CB
102
}
330
3CB
100
AcDbXrecord
280
     1
1000
auto
  0
XRECORD
  5
3EA
102
{ACAD_REACTORS
330
3CB
102
}
330
3CB
100
AcDbXrecord
280
     1
1000
auto
  0
XRECORD
  5
3EB
102
{ACAD_REACTORS
330
3CB
102
}
330
3CB
100
AcDbXrecord
280
     1
1000
auto
  0
XRECORD
  5
3EC
102
{ACAD_REACTORS
330
3CB
102
}
330
3CB
100
AcDbXrecord
280
     1
 90
        1
  0
XRECORD
  5
3ED
102
{ACAD_REACTORS
330
3CB
102
}
330
3CB
100
AcDbXrecord
280
     1
 40
10.0
  0
XRECORD
  5
3EE
102
{ACAD_REACTORS
330
3CB
102
}
330
3CB
100
AcDbXrecord
280
     1
 40
10.0
  0
XRECORD
  5
3EF
102
{ACAD_REACTORS
330
3CB
102
}
330
3CB
100
AcDbXrecord
280
     1
 40
10.0
  0
XRECORD
  5
3F0
102
{ACAD_REACTORS
330
3CB
102
}
330
3CB
100
AcDbXrecord
280
     1
 40
10.0
  0
XRECORD
  5
3F1
102
{ACAD_REACTORS
330
3CB
102
}
330
3CB
100
AcDbXrecord
280
     1
290
     0
  0
XRECORD
  5
3F2
102
{ACAD_REACTORS
330
3CB
102
}
330
3CB
100
AcDbXrecord
280
     1
 90
        1
  0
XRECORD
  5
3F3
102
{ACAD_REACTORS
330
3CB
102
}
330
3CB
100
AcDbXrecord
280
     1
 40
0.0
  0
XRECORD
  5
3F4
102
{ACAD_REACTORS
330
3CB
102
}
330
3CB
100
AcDbXrecord
280
     1
 40
0.0
  0
XRECORD
  5
3F5
102
{ACAD_REACTORS
330
3CB
102
}
330
3CB
100
AcDbXrecord
280
     1
1000
Portrait
  0
XRECORD
  5
3F6
102
{ACAD_REACTORS
330
3CB
102
}
330
3CB
100
AcDbXrecord
280
     1
 40
420.0
  0
XRECORD
  5
3F7
102
{ACAD_REACTORS
330
3CB
102
}
330
3CB
100
AcDbXrecord
280
     1
 40
297.0
  0
XRECORD
  5
3F8
102
{ACAD_REACTORS
330
3CB
102
}
330
3CB
100
AcDbXrecord
280
     1
1000
1:1
  0
XRECORD
  5
3F9
102
{ACAD_REACTORS
330
3CB
102
}
330
3CB
100
AcDbXrecord
280
     1
290
     1
  0
XRECORD
  5
3FA
102
{ACAD_REACTORS
330
3CB
102
}
330
3CB
100
AcDbXrecord
280
     1
290
     0
  0
XRECORD
  5
3FB
102
{ACAD_REACTORS
330
3CB
102
}
330
3CB
100
AcDbXrecord
280
     1
1000
Inside
  0
XRECORD
  5
3FC
102
{ACAD_REACTORS
330
3CB
102
}
330
3CB
100
AcDbXrecord
280
     1
1000
Arial,10,-1,5,50,0,0,0,0,0
  0
XRECORD
  5
3FD
102
{ACAD_REACTORS
330
3CB
102
}
330
3CB
100
AcDbXrecord
280
     1
1000
TopLeft
  0
XRECORD
  5
3FE
102
{ACAD_REACTORS
330
3CB
102
}
330
3CB
100
AcDbXrecord
280
     1
1000
3.29.3
  0
XRECORD
  5
3FF
102
{ACAD_REACTORS
330
3CB
102
}
330
3CB
100
AcDbXrecord
280
     1
 90
        4
  0
XRECORD
  5
400
102
{ACAD_REACTORS
330
3CB
102
}
330
3CB
100
AcDbXrecord
280
     1
  0
XRECORD
  5
401
102
{ACAD_REACTORS
330
3CB
102
}
330
3CB
100
AcDbXrecord
280
     1
 40
950.0996637661588
  0
XRECORD
  5
402
102
{ACAD_REACTORS
330
3CB
102
}
330
3CB
100
AcDbXrecord
280
     1
 40
2076.738116407786
  0
DICTIONARY
  5
44F
330
3C6
100
AcDbDictionary
280
     1
281
     1
  3
ACAD_ROUNDTRIP_2008_TABLESTYLE_CELLSTYLEMAP
360
450
  0
CELLSTYLEMAP
  5
450
102
{ACAD_REACTORS
330
44F
102
}
330
44F
100
AcDbCellStyleMap
 90
        3
300
CELLSTYLE
  1
TABLEFORMAT_BEGIN
 90
        5
170
     1
 91
        0
 92
    32768
 62
   257
 93
        1
300
CONTENTFORMAT
  1
CONTENTFORMAT_BEGIN
 90
        0
 91
        0
 92
        4
 93
        0
300

 40
0.0
140
1.0
 94
        5
 62
     0
340
37E
144
0.25
309
CONTENTFORMAT_END
171
     1
301
MARGIN
  1
CELLMARGIN_BEGIN
 40
0.06
 40
0.06
 40
0.06
 40
0.06
 40
0.06
 40
0.06
309
CELLMARGIN_END
 94
        6
 95
        1
302
GRIDFORMAT
  1
GRIDFORMAT_BEGIN
 90
        0
 91
        1
 62
     0
 92
       -2
340
380
 93
        0
 40
0.045
309
GRIDFORMAT_END
 95
        2
302
GRIDFORMAT
  1
GRIDFORMAT_BEGIN
 90
        0
 91
        1
 62
     0
 92
       -2
340
380
 93
        0
 40
0.045
309
GRIDFORMAT_END
 95
        4
302
GRIDFORMAT
  1
GRIDFORMAT_BEGIN
 90
        0
 91
        1
 62
     0
 92
       -2
340
380
 93
        0
 40
0.045
309
GRIDFORMAT_END
 95
        8
302
GRIDFORMAT
  1
GRIDFORMAT_BEGIN
 90
        0
 91
        1
 62
     0
 92
       -2
340
380
 93
        0
 40
0.045
309
GRIDFORMAT_END
 95
       16
302
GRIDFORMAT
  1
GRIDFORMAT_BEGIN
 90
        0
 91
        1
 62
     0
 92
       -2
340
380
 93
        0
 40
0.045
309
GRIDFORMAT_END
 95
       32
302
GRIDFORMAT
  1
GRIDFORMAT_BEGIN
 90
        0
 91
        1
 62
     0
 92
       -2
340
380
 93
        0
 40
0.045
309
GRIDFORMAT_END
309
TABLEFORMAT_END
  1
CELLSTYLE_BEGIN
 90
        1
 91
        1
300
_TITLE
309
CELLSTYLE_END
300
CELLSTYLE
  1
TABLEFORMAT_BEGIN
 90
        5
170
     1
 91
        0
 92
        0
 62
   257
 93
        1
300
CONTENTFORMAT
  1
CONTENTFORMAT_BEGIN
 90
        0
 91
        0
 92
        4
 93
        0
300

 40
0.0
140
1.0
 94
        5
 62
     0
340
37E
144
0.18
309
CONTENTFORMAT_END
171
     1
301
MARGIN
  1
CELLMARGIN_BEGIN
 40
0.06
 40
0.06
 40
0.06
 40
0.06
 40
0.06
 40
0.06
309
CELLMARGIN_END
 94
        6
 95
        1
302
GRIDFORMAT
  1
GRIDFORMAT_BEGIN
 90
        0
 91
        1
 62
     0
 92
       -2
340
380
 93
        0
 40
0.045
309
GRIDFORMAT_END
 95
        2
302
GRIDFORMAT
  1
GRIDFORMAT_BEGIN
 90
        0
 91
        1
 62
     0
 92
       -2
340
380
 93
        0
 40
0.045
309
GRIDFORMAT_END
 95
        4
302
GRIDFORMAT
  1
GRIDFORMAT_BEGIN
 90
        0
 91
        1
 62
     0
 92
       -2
340
380
 93
        0
 40
0.045
309
GRIDFORMAT_END
 95
        8
302
GRIDFORMAT
  1
GRIDFORMAT_BEGIN
 90
        0
 91
        1
 62
     0
 92
       -2
340
380
 93
        0
 40
0.045
309
GRIDFORMAT_END
 95
       16
302
GRIDFORMAT
  1
GRIDFORMAT_BEGIN
 90
        0
 91
        1
 62
     0
 92
       -2
340
380
 93
        0
 40
0.045
309
GRIDFORMAT_END
 95
       32
302
GRIDFORMAT
  1
GRIDFORMAT_BEGIN
 90
        0
 91
        1
 62
     0
 92
       -2
340
380
 93
        0
 40
0.045
309
GRIDFORMAT_END
309
TABLEFORMAT_END
  1
CELLSTYLE_BEGIN
 90
        2
 91
        1
300
_HEADER
309
CELLSTYLE_END
300
CELLSTYLE
  1
TABLEFORMAT_BEGIN
 90
        5
170
     1
 91
        0
 92
        0
 62
   257
 93
        1
300
CONTENTFORMAT
  1
CONTENTFORMAT_BEGIN
 90
        0
 91
        0
 92
        4
 93
        0
300

 40
0.0
140
1.0
 94
        2
 62
     0
340
37E
144
0.18
309
CONTENTFORMAT_END
171
     1
301
MARGIN
  1
CELLMARGIN_BEGIN
 40
0.06
 40
0.06
 40
0.06
 40
0.06
 40
0.06
 40
0.06
309
CELLMARGIN_END
 94
        6
 95
        1
302
GRIDFORMAT
  1
GRIDFORMAT_BEGIN
 90
        0
 91
        1
 62
     0
 92
       -2
340
380
 93
        0
 40
0.045
309
GRIDFORMAT_END
 95
        2
302
GRIDFORMAT
  1
GRIDFORMAT_BEGIN
 90
        0
 91
        1
 62
     0
 92
       -2
340
380
 93
        0
 40
0.045
309
GRIDFORMAT_END
 95
        4
302
GRIDFORMAT
  1
GRIDFORMAT_BEGIN
 90
        0
 91
        1
 62
     0
 92
       -2
340
380
 93
        0
 40
0.045
309
GRIDFORMAT_END
 95
        8
302
GRIDFORMAT
  1
GRIDFORMAT_BEGIN
 90
        0
 91
        1
 62
     0
 92
       -2
340
380
 93
        0
 40
0.045
309
GRIDFORMAT_END
 95
       16
302
GRIDFORMAT
  1
GRIDFORMAT_BEGIN
 90
        0
 91
        1
 62
     0
 92
       -2
340
380
 93
        0
 40
0.045
309
GRIDFORMAT_END
 95
       32
302
GRIDFORMAT
  1
GRIDFORMAT_BEGIN
 90
        0
 91
        1
 62
     0
 92
       -2
340
380
 93
        0
 40
0.045
309
GRIDFORMAT_END
309
TABLEFORMAT_END
  1
CELLSTYLE_BEGIN
 90
        3
 91
        2
300
_DATA
309
CELLSTYLE_END
  0
ENDSEC
  0
EOF
